  0
SECTION
  2
HEADER
  9
$ACADVER
  1
AC1015
  9
$ACADMAINTVER
 70
       6
  9
$DWGCODEPAGE
  3
DOS850
  9
$INSBASE
 10
0.0
 20
0.0
 30
0.0
  9
$EXTMIN
 10
-28.65
 20
0.0
 30
0.0
  9
$EXTMAX
 10
54.06429
 20
47.95
 30
0.0
  9
$LIMMIN
 10
-28.65
 20
0.0
  9
$LIMMAX
 10
54.06429
 20
47.95
  9
$ORTHOMODE
 70
       0
  9
$REGENMODE
 70
       1
  9
$FILLMODE
 70
       1
  9
$QTEXTMODE
 70
       0
  9
$MIRRTEXT
 70
       1
  9
$LTSCALE
 40
1.0
  9
$ATTMODE
 70
       1
  9
$TEXTSIZE
 40
0.2
  9
$TRACEWID
 40
0.05
  9
$TEXTSTYLE
  7
Standard
  9
$CLAYER
  8
0
  9
$CELTYPE
  6
Continuous
  9
$CECOLOR
 62
     256
  9
$CELTSCALE
 40
1.0
  9
$DISPSILH
 70
       0
  9
$DIMSCALE
 40
1.0
  9
$DIMASZ
 40
0.18
  9
$DIMEXO
 40
0.0625
  9
$DIMDLI
 40
0.38
  9
$DIMRND
 40
0.0
  9
$DIMDLE
 40
0.0
  9
$DIMEXE
 40
0.18
  9
$DIMTP
 40
0.0
  9
$DIMTM
 40
0.0
  9
$DIMTXT
 40
0.18
  9
$DIMCEN
 40
0.09
  9
$DIMTSZ
 40
0.0
  9
$DIMTOL
 70
       0
  9
$DIMLIM
 70
       0
  9
$DIMTIH
 70
       1
  9
$DIMTOH
 70
       1
  9
$DIMSE1
 70
       0
  9
$DIMSE2
 70
       0
  9
$DIMTAD
 70
       0
  9
$DIMZIN
 70
       0
  9
$DIMBLK
  1

  9
$DIMASO
 70
       1
  9
$DIMSHO
 70
       1
  9
$DIMPOST
  1

  9
$DIMAPOST
  1

  9
$DIMALT
 70
       0
  9
$DIMALTD
 70
       2
  9
$DIMALTF
 40
25.4
  9
$DIMLFAC
 40
1.0
  9
$DIMTOFL
 70
       0
  9
$DIMTVP
 40
0.0
  9
$DIMTIX
 70
       0
  9
$DIMSOXD
 70
       0
  9
$DIMSAH
 70
       0
  9
$DIMBLK1
  1

  9
$DIMBLK2
  1

  9
$DIMSTYLE
  2
Standard
  9
$DIMCLRD
 70
       0
  9
$DIMCLRE
 70
       0
  9
$DIMCLRT
 70
       0
  9
$DIMTFAC
 40
1.0
  9
$DIMGAP
 40
0.09
  9
$DIMJUST
 70
       0
  9
$DIMSD1
 70
       0
  9
$DIMSD2
 70
       0
  9
$DIMTOLJ
 70
       1
  9
$DIMTZIN
 70
       0
  9
$DIMALTZ
 70
       0
  9
$DIMALTTZ
 70
       0
  9
$DIMUPT
 70
       0
  9
$DIMDEC
 70
       4
  9
$DIMTDEC
 70
       4
  9
$DIMALTU
 70
       2
  9
$DIMALTTD
 70
       2
  9
$DIMTXSTY
  7
Standard
  9
$DIMAUNIT
 70
       0
  9
$DIMADEC
 70
       0
  9
$DIMALTRND
 40
0.0
  9
$DIMAZIN
 70
       0
  9
$DIMDSEP
 70
       0
  9
$DIMATFIT
 70
       3
  9
$DIMFRAC
 70
       0
  9
$DIMLDRBLK
  1

  9
$DIMLUNIT
 70
       2
  9
$DIMLWD
 70
       0
  9
$DIMLWE
 70
       0
  9
$DIMTMOVE
 70
       0
  9
$LUNITS
 70
       2
  9
$LUPREC
 70
       4
  9
$SKETCHINC
 40
0.1
  9
$FILLETRAD
 40
0.0
  9
$AUNITS
 70
       0
  9
$AUPREC
 70
       0
  9
$MENU
  1
acad
  9
$ELEVATION
 40
0.0
  9
$PELEVATION
 40
0.0
  9
$THICKNESS
 40
0.0
  9
$LIMCHECK
 70
       0
  9
$CHAMFERA
 40
0.0
  9
$CHAMFERB
 40
0.0
  9
$CHAMFERC
 40
0.0
  9
$CHAMFERD
 40
0.0
  9
$SKPOLY
 70
       0
  9
$TDCREATE
 40
0.000000000
  9
$TDUCREATE
 40
0.000000000
  9
$TDUPDATE
 40
0.000000000
  9
$TDUUPDATE
 40
0.000000000
  9
$TDINDWG
 40
0.0000000000
  9
$TDUSRTIMER
 40
0.0000000000
  9
$USRTIMER
 70
       1
  9
$ANGBASE
 50
0.0
  9
$ANGDIR
 70
       0
  9
$PDMODE
 70
       0
  9
$PDSIZE
 40
0.0
  9
$PLINEWID
 40
0.0
  9
$SPLFRAME
 70
       0
  9
$SPLINETYPE
 70
       6
  9
$SPLINESEGS
 70
       8
  9
$HANDSEED
  5
44C
  9
$SURFTAB1
 70
       6
  9
$SURFTAB2
 70
       6
  9
$SURFTYPE
 70
       6
  9
$SURFU
 70
       6
  9
$SURFV
 70
       6
  9
$UCSBASE
  2

  9
$UCSNAME
  2

  9
$UCSORG
 10
0.0
 20
0.0
 30
0.0
  9
$UCSXDIR
 10
1.0
 20
0.0
 30
0.0
  9
$UCSYDIR
 10
0.0
 20
1.0
 30
0.0
  9
$UCSORTHOREF
  2

  9
$UCSORTHOVIEW
 70
       0
  9
$UCSORGTOP
 10
0.0
 20
0.0
 30
0.0
  9
$UCSORGBOTTOM
 10
0.0
 20
0.0
 30
0.0
  9
$UCSORGLEFT
 10
0.0
 20
0.0
 30
0.0
  9
$UCSORGRIGHT
 10
0.0
 20
0.0
 30
0.0
  9
$UCSORGFRONT
 10
0.0
 20
0.0
 30
0.0
  9
$UCSORGBACK
 10
0.0
 20
0.0
 30
0.0
  9
$PUCSBASE
  2

  9
$PUCSNAME
  2

  9
$PUCSORG
 10
0.0
 20
0.0
 30
0.0
  9
$PUCSXDIR
 10
1.0
 20
0.0
 30
0.0
  9
$PUCSYDIR
 10
0.0
 20
1.0
 30
0.0
  9
$PUCSORTHOREF
  2

  9
$PUCSORTHOVIEW
 70
       0
  9
$PUCSORGTOP
 10
0.0
 20
0.0
 30
0.0
  9
$PUCSORGBOTTOM
 10
0.0
 20
0.0
 30
0.0
  9
$PUCSORGLEFT
 10
0.0
 20
0.0
 30
0.0
  9
$PUCSORGRIGHT
 10
0.0
 20
0.0
 30
0.0
  9
$PUCSORGFRONT
 10
0.0
 20
0.0
 30
0.0
  9
$PUCSORGBACK
 10
0.0
 20
0.0
 30
0.0
  9
$USERI1
 70
       0
  9
$USERI2
 70
       0
  9
$USERI3
 70
       0
  9
$USERI4
 70
       0
  9
$USERI5
 70
       0
  9
$USERR1
 40
0.0
  9
$USERR2
 40
0.0
  9
$USERR3
 40
0.0
  9
$USERR4
 40
0.0
  9
$USERR5
 40
0.0
  9
$WORLDVIEW
 70
       1
  9
$SHADEDGE
 70
       3
  9
$SHADEDIF
 70
      70
  9
$TILEMODE
 70
       1
  9
$MAXACTVP
 70
      16
  9
$PINSBASE
 10
0.0
 20
0.0
 30
0.0
  9
$PLIMCHECK
 70
       0
  9
$PEXTMIN
 10
1.00000000E+20
 20
1.00000000E+20
 30
1.00000000E+20
  9
$PEXTMAX
 10
-1.00000000E+20
 20
-1.00000000E+20
 30
-1.00000000E+20
  9
$PLIMMIN
 10
0.0
 20
0.0
  9
$PLIMMAX
 10
12.0
 20
9.0
  9
$UNITMODE
 70
       0
  9
$VISRETAIN
 70
       0
  9
$PLINEGEN
 70
       1
  9
$PSLTSCALE
 70
       0
  9
$TREEDEPTH
 70
    3020
  9
$CMLSTYLE
  2
Standard
  9
$CMLJUST
 70
       0
  9
$CMLSCALE
 40
1.0
  9
$PROXYGRAPHICS
 70
       0
  9
$MEASUREMENT
 70
       0
  9
$CELWEIGHT
370
       0
  9
$ENDCAPS
280
       0
  9
$JOINSTYLE
280
       0
  9
$LWDISPLAY
290
       0
  9
$INSUNITS
 70
       0
  9
$HYPERLINKBASE
  1

  9
$XEDIT
290
       1
  9
$CEPSNTYPE
380
       0
  9
$PSTYLEMODE
290
       1
  9
$FINGERPRINTGUID
  2

  9
$VERSIONGUID
  2

  9
$EXTNAMES
290
       1
  9
$PSVPSCALE
 40
0.0
  0
ENDSEC
  0
SECTION
  2
CLASSES
  0
CLASS
  1
LWPOLYLINE
  2
AcDbPolyline
  3
AutoCAD 2000
 90
    32768
280
       0
281
       1
  0
CLASS
  1
IMAGE
  2
AcDbRasterImage
  3
ISM
 90
    32895
280
       0
281
       1
  0
CLASS
  1
OLE2FRAME
  2
AcDbOle2Frame
  3
AutoCAD 2000
 90
    32768
280
       0
281
       1
  0
CLASS
  1
HATCH
  2
AcDbHatch
  3
AutoCAD 2000
 90
        0
280
       0
281
       1
  0
CLASS
  1
DICTIONARYVAR
  2
AcDbDictionaryVar
  3
AutoCAD 2000
 90
    32768
280
       0
281
       0
  0
CLASS
  1
RASTERVARIABLES
  2
AcDbRasterVariables
  3
ISM
 90
    32768
280
       0
281
       0
  0
CLASS
  1
IMAGEDEF
  2
AcDbRasterImageDef
  3
ISM
 90
    32768
280
       0
281
       0
  0
CLASS
  1
IMAGEDEF_REACTOR
  2
AcDbRasterImageDefReactor
  3
ISM
 90
    32769
280
       0
281
       0
  0
CLASS
  1
IDBUFFER
  2
AcDbIdBuffer
  3
AutoCAD 2000
 90
    32768
280
       0
281
       0
  0
CLASS
  1
SPATIAL_FILTER
  2
AcDbSpatialFilter
  3
AutoCAD 2000
 90
    32768
280
       0
281
       0
  0
CLASS
  1
XRECORD
  2
AcDbXrecord
  3
AutoCAD 2000
 90
    32768
280
       0
281
       0
  0
CLASS
  1
SORTENTSTABLE
  2
AcDbSortentsTable
  3
AutoCAD 2000
 90
    32768
280
       0
281
       0
  0
CLASS
  1
LAYER_INDEX
  2
AcDbLayerIndex
  3
AutoCAD 2000
 90
    32768
280
       0
281
       0
  0
CLASS
  1
SPATIAL_INDEX
  2
AcDbSpatialIndex
  3
AutoCAD 2000
 90
    32768
280
       0
281
       0
  0
CLASS
  1
OBJECT_PTR
  2
CAseDLPNTableRecord
  3
"ASE-LPNTableRecord"
 90
    32769
280
       0
281
       0
  0
CLASS
  1
LAYOUT
  2
AcDbLayout
  3
AutoCAD 2000
 90
        0
280
       0
281
       0
  0
CLASS
  1
PLOTSETTINGS
  2
AcDbPlotSettings
  3
AutoCAD 2000
 90
    32768
280
       0
281
       0
  0
CLASS
  1
ACDBDICTIONARYWDFLT
  2
AcDbDictionaryWithDefault
  3
AutoCAD 2000
 90
        0
280
       0
281
       0
  0
CLASS
  1
ACDBPLACEHOLDER
  2
AcDbPlaceHolder
  3
AutoCAD 2000
 90
        0
280
       0
281
       0
  0
CLASS
  1
VBA_PROJECT
  2
AcDbVbaProject
  3
acadvba
 90
    32768
280
       0
281
       0
  0
CLASS
  1
WIPEOUT
  2
AcDbWipeout
  3
WipeOut|AutoCAD Express Tool|expresstools@autodesk.com
 90
    32895
280
       0
281
       1
  0
CLASS
  1
WIPEOUTVARIABLES
  2
AcDbWipeoutVariables
  3
WipeOut|AutoCAD Express Tool|expresstools@autodesk.com
 90
        0
280
       0
281
       0
  0
CLASS
  1
RTEXT
  2
RText
  3
RText|AutoCAD Express Tool|expresstools@autodesk.com
 90
    32768
280
       0
281
       1
  0
CLASS
  1
ARCALIGNEDTEXT
  2
AcDbArcAlignedText
  3
ATEXT|AutoCAD Express Tool|expresstools@autodesk.com
 90
    32768
280
       0
281
       1
  0
ENDSEC
  0
SECTION
  2
TABLES
  0
TABLE
  2
VPORT
  5
7
100
AcDbSymbolTable
 70
       1
  0
VPORT
  5
15
100
AcDbSymbolTableRecord
100
AcDbViewportTableRecord
  2
*ACTIVE
 70
       0
 10
0.0
 20
0.0
 11
1.0
 21
1.0
 12
0.0
 22
0.0
 13
0.0
 23
0.0
 14
1.0
 24
1.0
 15
0.0
 25
0.0
 16
0.0
 26
0.0
 36
1.0
 17
12.707145
 27
23.975
 37
0.0
 40
86.8500045
 41
1.0
 42
50.0
 43
0.0
 44
0.0
 50
0.0
 51
0.0
 71
       0
 72
     100
 73
       1
 74
       1
 75
       0
 76
       0
 77
       0
 78
       0
281
       0
 65
       0
110
0.0
120
0.0
130
0.0
111
1.0
121
0.0
131
0.0
112
0.0
122
1.0
132
0.0
345
0
346
0
 79
       0
146
0.0
  0
ENDTAB
  0
TABLE
  2
LTYPE
  5
4
100
AcDbSymbolTable
 70
      11
  0
LTYPE
  5
11
100
AcDbSymbolTableRecord
100
AcDbLinetypeTableRecord
  2
ByBlock
 70
      64
  3

 72
      65
 73
       0
 40
0.0
  0
LTYPE
  5
12
100
AcDbSymbolTableRecord
100
AcDbLinetypeTableRecord
  2
ByLayer
 70
      64
  3

 72
      65
 73
       0
 40
0.0
  0
LTYPE
  5
13
100
AcDbSymbolTableRecord
100
AcDbLinetypeTableRecord
  2
Continuous
 70
      64
  3
Solid line
 72
      65
 73
       0
 40
0.0
  0
LTYPE
  5
29
100
AcDbSymbolTableRecord
100
AcDbLinetypeTableRecord
  2
CONTINUOUS
 70
       0
  3
_____________________________________________
 72
      65
 73
       0
 40
0.0
  0
LTYPE
  5
2A
100
AcDbSymbolTableRecord
100
AcDbLinetypeTableRecord
  2
HIDDEN
 70
       0
  3
__ __ __ __ __ __ __ __ __ __ __ __ __ __ __ __
 72
      65
 73
       2
 40
0.75
 49
0.5
 74
       0
 49
-0.25
 74
       0
  0
LTYPE
  5
2B
100
AcDbSymbolTableRecord
100
AcDbLinetypeTableRecord
  2
BORDER
 70
       0
  3
-- . -- . -- . -- . --
 72
      65
 73
       4
 40
1.0
 49
0.5
 74
       0
 49
-0.25
 74
       0
 49
0.0
 74
       0
 49
-0.25
 74
       0
  0
LTYPE
  5
2C
100
AcDbSymbolTableRecord
100
AcDbLinetypeTableRecord
  2
DASHED
 70
       0
  3
- - - - - - - -
 72
      65
 73
       2
 40
1.25
 49
1.0
 74
       0
 49
-0.25
 74
       0
  0
LTYPE
  5
2D
100
AcDbSymbolTableRecord
100
AcDbLinetypeTableRecord
  2
CENTER
 70
       0
  3
--- - --- - --- - ---
 72
      65
 73
       4
 40
1.1
 49
0.5
 74
       0
 49
-0.25
 74
       0
 49
0.1
 74
       0
 49
-0.25
 74
       0
  0
LTYPE
  5
2E
100
AcDbSymbolTableRecord
100
AcDbLinetypeTableRecord
  2
PHANTOM
 70
       0
  3
--- - - --- - - --- - - ---
 72
      65
 73
       6
 40
1.45
 49
0.5
 74
       0
 49
-0.25
 74
       0
 49
0.1
 74
       0
 49
-0.25
 74
       0
 49
0.1
 74
       0
 49
-0.25
 74
       0
  0
LTYPE
  5
2F
100
AcDbSymbolTableRecord
100
AcDbLinetypeTableRecord
  2
DOT
 70
       0
  3
. . . . . . . . . .
 72
      65
 73
       2
 40
0.25
 49
0.0
 74
       0
 49
-0.25
 74
       0
  0
LTYPE
  5
30
100
AcDbSymbolTableRecord
100
AcDbLinetypeTableRecord
  2
DIVIDE
 70
       0
  3
.  .  .  .  .  .  .  .  .  .
 72
      65
 73
       2
 40
0.5
 49
0.0
 74
       0
 49
-0.5
 74
       0
  0
ENDTAB
  0
TABLE
  2
LAYER
  5
2
100
AcDbSymbolTable
 70
       3
  0
LAYER
  5
14
100
AcDbSymbolTableRecord
100
AcDbLayerTableRecord
  2
0
 70
       0
 62
       7
  6
Continuous
290
       1
370
      -3
390
1D
  0
LAYER
  5
31
100
AcDbSymbolTableRecord
100
AcDbLayerTableRecord
  2
Documentation_1
 70
       0
 62
       4
  6
CONTINUOUS
290
       1
370
      -3
390
1F
  0
LAYER
  5
32
100
AcDbSymbolTableRecord
100
AcDbLayerTableRecord
  2
Solder_Pad_1_Top
 70
       0
 62
       1
  6
CONTINUOUS
290
       1
370
      -3
390
1F
  0
ENDTAB
  0
TABLE
  2
STYLE
  5
3
100
AcDbSymbolTable
 70
       6
  0
STYLE
  5
17
100
AcDbSymbolTableRecord
100
AcDbTextStyleTableRecord
  2
Standard
 70
       0
 40
0.0
 41
1.0
 50
0.0
 71
       0
 42
0.0
  3
txt
  4

  0
STYLE
  5
24
100
AcDbSymbolTableRecord
100
AcDbTextStyleTableRecord
  2
iso
 70
       0
 40
1.0
 41
1.0
 50
0.0
 71
       0
 42
1.0
  3
iso
  4

  0
STYLE
  5
25
100
AcDbSymbolTableRecord
100
AcDbTextStyleTableRecord
  2
complex
 70
       0
 40
1.0
 41
1.0
 50
0.0
 71
       0
 42
1.0
  3
complex
  4

  0
STYLE
  5
26
100
AcDbSymbolTableRecord
100
AcDbTextStyleTableRecord
  2
simplex
 70
       0
 40
1.0
 41
1.0
 50
0.0
 71
       0
 42
1.0
  3
simplex
  4

  0
STYLE
  5
27
100
AcDbSymbolTableRecord
100
AcDbTextStyleTableRecord
  2
romanc
 70
       0
 40
1.0
 41
1.0
 50
0.0
 71
       0
 42
1.0
  3
romanc
  4

  0
STYLE
  5
28
100
AcDbSymbolTableRecord
100
AcDbTextStyleTableRecord
  2
romant
 70
       0
 40
1.0
 41
1.0
 50
0.0
 71
       0
 42
1.0
  3
romant
  4

  0
ENDTAB
  0
TABLE
  2
VIEW
  5
5
100
AcDbSymbolTable
 70
       1
  0
VIEW
  5
33
100
AcDbSymbolTableRecord
100
AcDbViewTableRecord
  2
FIT
 70
       0
 40
1.0
 10
0.0
 20
0.0
 41
120.834
 11
0.0
 21
0.0
 31
1.0
 12
12.707145
 22
23.975
 32
0.0
 42
50.0
 43
0.0
 44
0.0
 50
0.0
 71
       0
281
       0
 72
       0
110
0.0
120
0.0
130
0.0
111
1.0
121
0.0
131
0.0
112
0.0
122
1.0
132
0.0
  0
ENDTAB
  0
TABLE
  2
UCS
  5
6
100
AcDbSymbolTable
 70
       0
  0
ENDTAB
  0
TABLE
  2
APPID
  5
8
100
AcDbSymbolTable
 70
       1
  0
APPID
  5
16
100
AcDbSymbolTableRecord
100
AcDbRegAppTableRecord
  2
ACAD
 70
       0
  0
ENDTAB
  0
TABLE
  2
DIMSTYLE
  5
9
100
AcDbSymbolTable
 70
       1
100
AcDbDimStyleTable
 71
       0
  0
DIMSTYLE
105
18
100
AcDbSymbolTableRecord
100
AcDbDimStyleTableRecord
  2
Standard
 70
       0
  3

  4

 40
1.0
 41
0.18
 42
0.0625
 43
0.38
 44
0.18
 45
0.0
 46
0.0
 47
0.0
 48
0.0
 71
       0
 72
       0
 73
       1
 74
       1
 75
       0
 76
       0
 77
       0
 78
       0
 79
       0
140
0.18
141
0.09
142
0.0
143
25.4
144
1.0
145
0.0
146
1.0
147
0.09
148
0.0
170
       0
171
       2
172
       0
173
       0
174
       0
175
       0
176
       0
177
       0
178
       0
179
       0
271
       4
272
       4
273
       2
274
       2
275
       0
276
       0
277
       2
278
      46
279
       0
280
       0
281
       0
282
       0
283
       1
284
       0
285
       0
286
       0
288
       0
340
17
341
0
342
0
343
0
344
0
371
      -2
372
      -2
  0
ENDTAB
  0
TABLE
  2
BLOCK_RECORD
  5
1
100
AcDbSymbolTable
 70
       0
  0
BLOCK_RECORD
  5
A
100
AcDbSymbolTableRecord
100
AcDbBlockTableRecord
  2
*MODEL_SPACE
340
20
  0
BLOCK_RECORD
  5
B
100
AcDbSymbolTableRecord
100
AcDbBlockTableRecord
  2
*PAPER_SPACE
340
21
  0
ENDTAB
  0
ENDSEC
  0
SECTION
  2
BLOCKS
  0
BLOCK
  5
D
100
AcDbEntity
  8
0
100
AcDbBlockBegin
  2
*MODEL_SPACE
 70
       0
 10
0.0
 20
0.0
 30
0.0
  3
*MODEL_SPACE
  1

  0
ENDBLK
  5
E
100
AcDbEntity
  8
0
100
AcDbBlockEnd
  0
BLOCK
  5
F
100
AcDbEntity
 67
       1
  8
0
100
AcDbBlockBegin
  2
*PAPER_SPACE
 70
       0
 10
0.0
 20
0.0
 30
0.0
  3
*PAPER_SPACE
  1

  0
ENDBLK
  5
10
100
AcDbEntity
 67
       1
  8
0
100
AcDbBlockEnd
  0
ENDSEC
  0
SECTION
  2
ENTITIES
  0
TEXT
  5
34
100
AcDbEntity
  8
Documentation_1
100
AcDbText
 10
-28.65
 20
41.95
 40
6.0
  1
flowE1 pattern
  7
complex
100
AcDbText
  0
HATCH
  5
35
100
AcDbEntity
  8
Solder_Pad_1_Top
100
AcDbHatch
 10
0.0
 20
0.0
 30
0.0
210
0.0
220
0.0
230
1.0
  2
SOLID
 70
       1
 71
       1
 91
        1
 92
        1
 93
        7
 72
       1
 10
1.6499999999999999
 20
24.483979999999999
 11
3.1499999999999999
 21
23.61795
 72
       1
 10
3.1499999999999999
 20
23.61795
 11
4.6500000000000004
 21
24.483979999999999
 72
       1
 10
4.6500000000000004
 20
24.483979999999999
 11
4.6500000000000004
 21
26.21603
 72
       1
 10
4.6500000000000004
 20
26.21603
 11
3.8117299999999998
 21
26.699999999999999
 72
       1
 10
3.8117299999999998
 20
26.699999999999999
 11
2.48827
 21
26.699999999999999
 72
       1
 10
2.48827
 20
26.699999999999999
 11
1.6499999999999999
 21
26.21603
 72
       1
 10
1.6499999999999999
 20
26.21603
 11
1.6499999999999999
 21
24.483979999999999
 97
        0
 75
       0
 76
       2
 98
        1
 10
0.0
 20
0.0
  0
POLYLINE
  5
36
100
AcDbEntity
  8
Solder_Pad_1_Top
100
AcDb2dPolyline
 66
       1
 10
0.0
 20
0.0
 30
0.0
 70
       1
  0
VERTEX
  5
37
100
AcDbEntity
  8
Solder_Pad_1_Top
100
AcDbVertex
100
AcDb2dVertex
 10
2.48827
 20
26.7
  0
VERTEX
  5
38
100
AcDbEntity
  8
Solder_Pad_1_Top
100
AcDbVertex
100
AcDb2dVertex
 10
2.48827
 20
26.7
  0
VERTEX
  5
39
100
AcDbEntity
  8
Solder_Pad_1_Top
100
AcDbVertex
100
AcDb2dVertex
 10
1.65
 20
26.21603
  0
VERTEX
  5
3A
100
AcDbEntity
  8
Solder_Pad_1_Top
100
AcDbVertex
100
AcDb2dVertex
 10
1.65
 20
24.48398
  0
VERTEX
  5
3B
100
AcDbEntity
  8
Solder_Pad_1_Top
100
AcDbVertex
100
AcDb2dVertex
 10
3.15
 20
23.61795
  0
VERTEX
  5
3C
100
AcDbEntity
  8
Solder_Pad_1_Top
100
AcDbVertex
100
AcDb2dVertex
 10
4.65
 20
24.48398
  0
VERTEX
  5
3D
100
AcDbEntity
  8
Solder_Pad_1_Top
100
AcDbVertex
100
AcDb2dVertex
 10
4.65
 20
26.21603
  0
VERTEX
  5
3E
100
AcDbEntity
  8
Solder_Pad_1_Top
100
AcDbVertex
100
AcDb2dVertex
 10
3.81173
 20
26.7
  0
VERTEX
  5
3F
100
AcDbEntity
  8
Solder_Pad_1_Top
100
AcDbVertex
100
AcDb2dVertex
 10
2.48827
 20
26.7
  0
SEQEND
  5
40
100
AcDbEntity
  8
Solder_Pad_1_Top
  0
HATCH
  5
41
100
AcDbEntity
  8
Solder_Pad_1_Top
100
AcDbHatch
 10
0.0
 20
0.0
 30
0.0
210
0.0
220
0.0
230
1.0
  2
SOLID
 70
       1
 71
       1
 91
        1
 92
        1
 93
        7
 72
       1
 10
5.1500000000000004
 20
24.483979999999999
 11
6.6500000000000004
 21
23.61795
 72
       1
 10
6.6500000000000004
 20
23.61795
 11
8.1500000000000004
 21
24.483979999999999
 72
       1
 10
8.1500000000000004
 20
24.483979999999999
 11
8.1500000000000004
 21
26.21603
 72
       1
 10
8.1500000000000004
 20
26.21603
 11
7.3117299999999998
 21
26.699999999999999
 72
       1
 10
7.3117299999999998
 20
26.699999999999999
 11
5.98827
 21
26.699999999999999
 72
       1
 10
5.98827
 20
26.699999999999999
 11
5.1500000000000004
 21
26.21603
 72
       1
 10
5.1500000000000004
 20
26.21603
 11
5.1500000000000004
 21
24.483979999999999
 97
        0
 75
       0
 76
       2
 98
        1
 10
0.0
 20
0.0
  0
POLYLINE
  5
42
100
AcDbEntity
  8
Solder_Pad_1_Top
100
AcDb2dPolyline
 66
       1
 10
0.0
 20
0.0
 30
0.0
 70
       1
  0
VERTEX
  5
43
100
AcDbEntity
  8
Solder_Pad_1_Top
100
AcDbVertex
100
AcDb2dVertex
 10
5.98827
 20
26.7
  0
VERTEX
  5
44
100
AcDbEntity
  8
Solder_Pad_1_Top
100
AcDbVertex
100
AcDb2dVertex
 10
5.98827
 20
26.7
  0
VERTEX
  5
45
100
AcDbEntity
  8
Solder_Pad_1_Top
100
AcDbVertex
100
AcDb2dVertex
 10
5.15
 20
26.21603
  0
VERTEX
  5
46
100
AcDbEntity
  8
Solder_Pad_1_Top
100
AcDbVertex
100
AcDb2dVertex
 10
5.15
 20
24.48398
  0
VERTEX
  5
47
100
AcDbEntity
  8
Solder_Pad_1_Top
100
AcDbVertex
100
AcDb2dVertex
 10
6.65
 20
23.61795
  0
VERTEX
  5
48
100
AcDbEntity
  8
Solder_Pad_1_Top
100
AcDbVertex
100
AcDb2dVertex
 10
8.15
 20
24.48398
  0
VERTEX
  5
49
100
AcDbEntity
  8
Solder_Pad_1_Top
100
AcDbVertex
100
AcDb2dVertex
 10
8.15
 20
26.21603
  0
VERTEX
  5
4A
100
AcDbEntity
  8
Solder_Pad_1_Top
100
AcDbVertex
100
AcDb2dVertex
 10
7.31173
 20
26.7
  0
VERTEX
  5
4B
100
AcDbEntity
  8
Solder_Pad_1_Top
100
AcDbVertex
100
AcDb2dVertex
 10
5.98827
 20
26.7
  0
SEQEND
  5
4C
100
AcDbEntity
  8
Solder_Pad_1_Top
  0
HATCH
  5
4D
100
AcDbEntity
  8
Solder_Pad_1_Top
100
AcDbHatch
 10
0.0
 20
0.0
 30
0.0
210
0.0
220
0.0
230
1.0
  2
SOLID
 70
       1
 71
       1
 91
        1
 92
        1
 93
        7
 72
       1
 10
8.6500000000000004
 20
24.483979999999999
 11
10.15
 21
23.61795
 72
       1
 10
10.15
 20
23.61795
 11
11.65
 21
24.483979999999999
 72
       1
 10
11.65
 20
24.483979999999999
 11
11.65
 21
26.21603
 72
       1
 10
11.65
 20
26.21603
 11
10.811730000000001
 21
26.699999999999999
 72
       1
 10
10.811730000000001
 20
26.699999999999999
 11
9.48827
 21
26.699999999999999
 72
       1
 10
9.48827
 20
26.699999999999999
 11
8.6500000000000004
 21
26.21603
 72
       1
 10
8.6500000000000004
 20
26.21603
 11
8.6500000000000004
 21
24.483979999999999
 97
        0
 75
       0
 76
       2
 98
        1
 10
0.0
 20
0.0
  0
POLYLINE
  5
4E
100
AcDbEntity
  8
Solder_Pad_1_Top
100
AcDb2dPolyline
 66
       1
 10
0.0
 20
0.0
 30
0.0
 70
       1
  0
VERTEX
  5
4F
100
AcDbEntity
  8
Solder_Pad_1_Top
100
AcDbVertex
100
AcDb2dVertex
 10
9.48827
 20
26.7
  0
VERTEX
  5
50
100
AcDbEntity
  8
Solder_Pad_1_Top
100
AcDbVertex
100
AcDb2dVertex
 10
9.48827
 20
26.7
  0
VERTEX
  5
51
100
AcDbEntity
  8
Solder_Pad_1_Top
100
AcDbVertex
100
AcDb2dVertex
 10
8.65
 20
26.21603
  0
VERTEX
  5
52
100
AcDbEntity
  8
Solder_Pad_1_Top
100
AcDbVertex
100
AcDb2dVertex
 10
8.65
 20
24.48398
  0
VERTEX
  5
53
100
AcDbEntity
  8
Solder_Pad_1_Top
100
AcDbVertex
100
AcDb2dVertex
 10
10.15
 20
23.61795
  0
VERTEX
  5
54
100
AcDbEntity
  8
Solder_Pad_1_Top
100
AcDbVertex
100
AcDb2dVertex
 10
11.65
 20
24.48398
  0
VERTEX
  5
55
100
AcDbEntity
  8
Solder_Pad_1_Top
100
AcDbVertex
100
AcDb2dVertex
 10
11.65
 20
26.21603
  0
VERTEX
  5
56
100
AcDbEntity
  8
Solder_Pad_1_Top
100
AcDbVertex
100
AcDb2dVertex
 10
10.81173
 20
26.7
  0
VERTEX
  5
57
100
AcDbEntity
  8
Solder_Pad_1_Top
100
AcDbVertex
100
AcDb2dVertex
 10
9.48827
 20
26.7
  0
SEQEND
  5
58
100
AcDbEntity
  8
Solder_Pad_1_Top
  0
HATCH
  5
59
100
AcDbEntity
  8
Solder_Pad_1_Top
100
AcDbHatch
 10
0.0
 20
0.0
 30
0.0
210
0.0
220
0.0
230
1.0
  2
SOLID
 70
       1
 71
       1
 91
        1
 92
        1
 93
        7
 72
       1
 10
12.15
 20
24.483979999999999
 11
13.65
 21
23.61795
 72
       1
 10
13.65
 20
23.61795
 11
15.15
 21
24.483979999999999
 72
       1
 10
15.15
 20
24.483979999999999
 11
15.15
 21
26.21603
 72
       1
 10
15.15
 20
26.21603
 11
14.311730000000001
 21
26.699999999999999
 72
       1
 10
14.311730000000001
 20
26.699999999999999
 11
12.98827
 21
26.699999999999999
 72
       1
 10
12.98827
 20
26.699999999999999
 11
12.15
 21
26.21603
 72
       1
 10
12.15
 20
26.21603
 11
12.15
 21
24.483979999999999
 97
        0
 75
       0
 76
       2
 98
        1
 10
0.0
 20
0.0
  0
POLYLINE
  5
5A
100
AcDbEntity
  8
Solder_Pad_1_Top
100
AcDb2dPolyline
 66
       1
 10
0.0
 20
0.0
 30
0.0
 70
       1
  0
VERTEX
  5
5B
100
AcDbEntity
  8
Solder_Pad_1_Top
100
AcDbVertex
100
AcDb2dVertex
 10
12.98827
 20
26.7
  0
VERTEX
  5
5C
100
AcDbEntity
  8
Solder_Pad_1_Top
100
AcDbVertex
100
AcDb2dVertex
 10
12.98827
 20
26.7
  0
VERTEX
  5
5D
100
AcDbEntity
  8
Solder_Pad_1_Top
100
AcDbVertex
100
AcDb2dVertex
 10
12.15
 20
26.21603
  0
VERTEX
  5
5E
100
AcDbEntity
  8
Solder_Pad_1_Top
100
AcDbVertex
100
AcDb2dVertex
 10
12.15
 20
24.48398
  0
VERTEX
  5
5F
100
AcDbEntity
  8
Solder_Pad_1_Top
100
AcDbVertex
100
AcDb2dVertex
 10
13.65
 20
23.61795
  0
VERTEX
  5
60
100
AcDbEntity
  8
Solder_Pad_1_Top
100
AcDbVertex
100
AcDb2dVertex
 10
15.15
 20
24.48398
  0
VERTEX
  5
61
100
AcDbEntity
  8
Solder_Pad_1_Top
100
AcDbVertex
100
AcDb2dVertex
 10
15.15
 20
26.21603
  0
VERTEX
  5
62
100
AcDbEntity
  8
Solder_Pad_1_Top
100
AcDbVertex
100
AcDb2dVertex
 10
14.31173
 20
26.7
  0
VERTEX
  5
63
100
AcDbEntity
  8
Solder_Pad_1_Top
100
AcDbVertex
100
AcDb2dVertex
 10
12.98827
 20
26.7
  0
SEQEND
  5
64
100
AcDbEntity
  8
Solder_Pad_1_Top
  0
HATCH
  5
65
100
AcDbEntity
  8
Solder_Pad_1_Top
100
AcDbHatch
 10
0.0
 20
0.0
 30
0.0
210
0.0
220
0.0
230
1.0
  2
SOLID
 70
       1
 71
       1
 91
        1
 92
        1
 93
        7
 72
       1
 10
15.65
 20
24.483979999999999
 11
17.149999999999999
 21
23.61795
 72
       1
 10
17.149999999999999
 20
23.61795
 11
18.649999999999999
 21
24.483979999999999
 72
       1
 10
18.649999999999999
 20
24.483979999999999
 11
18.649999999999999
 21
26.21603
 72
       1
 10
18.649999999999999
 20
26.21603
 11
17.811730000000001
 21
26.699999999999999
 72
       1
 10
17.811730000000001
 20
26.699999999999999
 11
16.48827
 21
26.699999999999999
 72
       1
 10
16.48827
 20
26.699999999999999
 11
15.65
 21
26.21603
 72
       1
 10
15.65
 20
26.21603
 11
15.65
 21
24.483979999999999
 97
        0
 75
       0
 76
       2
 98
        1
 10
0.0
 20
0.0
  0
POLYLINE
  5
66
100
AcDbEntity
  8
Solder_Pad_1_Top
100
AcDb2dPolyline
 66
       1
 10
0.0
 20
0.0
 30
0.0
 70
       1
  0
VERTEX
  5
67
100
AcDbEntity
  8
Solder_Pad_1_Top
100
AcDbVertex
100
AcDb2dVertex
 10
16.48827
 20
26.7
  0
VERTEX
  5
68
100
AcDbEntity
  8
Solder_Pad_1_Top
100
AcDbVertex
100
AcDb2dVertex
 10
16.48827
 20
26.7
  0
VERTEX
  5
69
100
AcDbEntity
  8
Solder_Pad_1_Top
100
AcDbVertex
100
AcDb2dVertex
 10
15.65
 20
26.21603
  0
VERTEX
  5
6A
100
AcDbEntity
  8
Solder_Pad_1_Top
100
AcDbVertex
100
AcDb2dVertex
 10
15.65
 20
24.48398
  0
VERTEX
  5
6B
100
AcDbEntity
  8
Solder_Pad_1_Top
100
AcDbVertex
100
AcDb2dVertex
 10
17.15
 20
23.61795
  0
VERTEX
  5
6C
100
AcDbEntity
  8
Solder_Pad_1_Top
100
AcDbVertex
100
AcDb2dVertex
 10
18.65
 20
24.48398
  0
VERTEX
  5
6D
100
AcDbEntity
  8
Solder_Pad_1_Top
100
AcDbVertex
100
AcDb2dVertex
 10
18.65
 20
26.21603
  0
VERTEX
  5
6E
100
AcDbEntity
  8
Solder_Pad_1_Top
100
AcDbVertex
100
AcDb2dVertex
 10
17.81173
 20
26.7
  0
VERTEX
  5
6F
100
AcDbEntity
  8
Solder_Pad_1_Top
100
AcDbVertex
100
AcDb2dVertex
 10
16.48827
 20
26.7
  0
SEQEND
  5
70
100
AcDbEntity
  8
Solder_Pad_1_Top
  0
HATCH
  5
71
100
AcDbEntity
  8
Solder_Pad_1_Top
100
AcDbHatch
 10
0.0
 20
0.0
 30
0.0
210
0.0
220
0.0
230
1.0
  2
SOLID
 70
       1
 71
       1
 91
        1
 92
        1
 93
        7
 72
       1
 10
19.149999999999999
 20
24.483979999999999
 11
20.649999999999999
 21
23.61795
 72
       1
 10
20.649999999999999
 20
23.61795
 11
22.149999999999999
 21
24.483979999999999
 72
       1
 10
22.149999999999999
 20
24.483979999999999
 11
22.149999999999999
 21
26.21603
 72
       1
 10
22.149999999999999
 20
26.21603
 11
21.311730000000001
 21
26.699999999999999
 72
       1
 10
21.311730000000001
 20
26.699999999999999
 11
19.98827
 21
26.699999999999999
 72
       1
 10
19.98827
 20
26.699999999999999
 11
19.149999999999999
 21
26.21603
 72
       1
 10
19.149999999999999
 20
26.21603
 11
19.149999999999999
 21
24.483979999999999
 97
        0
 75
       0
 76
       2
 98
        1
 10
0.0
 20
0.0
  0
POLYLINE
  5
72
100
AcDbEntity
  8
Solder_Pad_1_Top
100
AcDb2dPolyline
 66
       1
 10
0.0
 20
0.0
 30
0.0
 70
       1
  0
VERTEX
  5
73
100
AcDbEntity
  8
Solder_Pad_1_Top
100
AcDbVertex
100
AcDb2dVertex
 10
19.98827
 20
26.7
  0
VERTEX
  5
74
100
AcDbEntity
  8
Solder_Pad_1_Top
100
AcDbVertex
100
AcDb2dVertex
 10
19.98827
 20
26.7
  0
VERTEX
  5
75
100
AcDbEntity
  8
Solder_Pad_1_Top
100
AcDbVertex
100
AcDb2dVertex
 10
19.15
 20
26.21603
  0
VERTEX
  5
76
100
AcDbEntity
  8
Solder_Pad_1_Top
100
AcDbVertex
100
AcDb2dVertex
 10
19.15
 20
24.48398
  0
VERTEX
  5
77
100
AcDbEntity
  8
Solder_Pad_1_Top
100
AcDbVertex
100
AcDb2dVertex
 10
20.65
 20
23.61795
  0
VERTEX
  5
78
100
AcDbEntity
  8
Solder_Pad_1_Top
100
AcDbVertex
100
AcDb2dVertex
 10
22.15
 20
24.48398
  0
VERTEX
  5
79
100
AcDbEntity
  8
Solder_Pad_1_Top
100
AcDbVertex
100
AcDb2dVertex
 10
22.15
 20
26.21603
  0
VERTEX
  5
7A
100
AcDbEntity
  8
Solder_Pad_1_Top
100
AcDbVertex
100
AcDb2dVertex
 10
21.31173
 20
26.7
  0
VERTEX
  5
7B
100
AcDbEntity
  8
Solder_Pad_1_Top
100
AcDbVertex
100
AcDb2dVertex
 10
19.98827
 20
26.7
  0
SEQEND
  5
7C
100
AcDbEntity
  8
Solder_Pad_1_Top
  0
HATCH
  5
7D
100
AcDbEntity
  8
Solder_Pad_1_Top
100
AcDbHatch
 10
0.0
 20
0.0
 30
0.0
210
0.0
220
0.0
230
1.0
  2
SOLID
 70
       1
 71
       1
 91
        1
 92
        1
 93
        7
 72
       1
 10
22.649999999999999
 20
24.483979999999999
 11
24.149999999999999
 21
23.61795
 72
       1
 10
24.149999999999999
 20
23.61795
 11
25.649999999999999
 21
24.483979999999999
 72
       1
 10
25.649999999999999
 20
24.483979999999999
 11
25.649999999999999
 21
26.21603
 72
       1
 10
25.649999999999999
 20
26.21603
 11
24.811730000000001
 21
26.699999999999999
 72
       1
 10
24.811730000000001
 20
26.699999999999999
 11
23.48827
 21
26.699999999999999
 72
       1
 10
23.48827
 20
26.699999999999999
 11
22.649999999999999
 21
26.21603
 72
       1
 10
22.649999999999999
 20
26.21603
 11
22.649999999999999
 21
24.483979999999999
 97
        0
 75
       0
 76
       2
 98
        1
 10
0.0
 20
0.0
  0
POLYLINE
  5
7E
100
AcDbEntity
  8
Solder_Pad_1_Top
100
AcDb2dPolyline
 66
       1
 10
0.0
 20
0.0
 30
0.0
 70
       1
  0
VERTEX
  5
7F
100
AcDbEntity
  8
Solder_Pad_1_Top
100
AcDbVertex
100
AcDb2dVertex
 10
23.48827
 20
26.7
  0
VERTEX
  5
80
100
AcDbEntity
  8
Solder_Pad_1_Top
100
AcDbVertex
100
AcDb2dVertex
 10
23.48827
 20
26.7
  0
VERTEX
  5
81
100
AcDbEntity
  8
Solder_Pad_1_Top
100
AcDbVertex
100
AcDb2dVertex
 10
22.65
 20
26.21603
  0
VERTEX
  5
82
100
AcDbEntity
  8
Solder_Pad_1_Top
100
AcDbVertex
100
AcDb2dVertex
 10
22.65
 20
24.48398
  0
VERTEX
  5
83
100
AcDbEntity
  8
Solder_Pad_1_Top
100
AcDbVertex
100
AcDb2dVertex
 10
24.15
 20
23.61795
  0
VERTEX
  5
84
100
AcDbEntity
  8
Solder_Pad_1_Top
100
AcDbVertex
100
AcDb2dVertex
 10
25.65
 20
24.48398
  0
VERTEX
  5
85
100
AcDbEntity
  8
Solder_Pad_1_Top
100
AcDbVertex
100
AcDb2dVertex
 10
25.65
 20
26.21603
  0
VERTEX
  5
86
100
AcDbEntity
  8
Solder_Pad_1_Top
100
AcDbVertex
100
AcDb2dVertex
 10
24.81173
 20
26.7
  0
VERTEX
  5
87
100
AcDbEntity
  8
Solder_Pad_1_Top
100
AcDbVertex
100
AcDb2dVertex
 10
23.48827
 20
26.7
  0
SEQEND
  5
88
100
AcDbEntity
  8
Solder_Pad_1_Top
  0
HATCH
  5
89
100
AcDbEntity
  8
Solder_Pad_1_Top
100
AcDbHatch
 10
0.0
 20
0.0
 30
0.0
210
0.0
220
0.0
230
1.0
  2
SOLID
 70
       1
 71
       1
 91
        1
 92
        1
 93
        7
 72
       1
 10
26.149999999999999
 20
24.483979999999999
 11
27.649999999999999
 21
23.61795
 72
       1
 10
27.649999999999999
 20
23.61795
 11
29.149999999999999
 21
24.483979999999999
 72
       1
 10
29.149999999999999
 20
24.483979999999999
 11
29.149999999999999
 21
26.21603
 72
       1
 10
29.149999999999999
 20
26.21603
 11
28.311730000000001
 21
26.699999999999999
 72
       1
 10
28.311730000000001
 20
26.699999999999999
 11
26.98827
 21
26.699999999999999
 72
       1
 10
26.98827
 20
26.699999999999999
 11
26.149999999999999
 21
26.21603
 72
       1
 10
26.149999999999999
 20
26.21603
 11
26.149999999999999
 21
24.483979999999999
 97
        0
 75
       0
 76
       2
 98
        1
 10
0.0
 20
0.0
  0
POLYLINE
  5
8A
100
AcDbEntity
  8
Solder_Pad_1_Top
100
AcDb2dPolyline
 66
       1
 10
0.0
 20
0.0
 30
0.0
 70
       1
  0
VERTEX
  5
8B
100
AcDbEntity
  8
Solder_Pad_1_Top
100
AcDbVertex
100
AcDb2dVertex
 10
26.98827
 20
26.7
  0
VERTEX
  5
8C
100
AcDbEntity
  8
Solder_Pad_1_Top
100
AcDbVertex
100
AcDb2dVertex
 10
26.98827
 20
26.7
  0
VERTEX
  5
8D
100
AcDbEntity
  8
Solder_Pad_1_Top
100
AcDbVertex
100
AcDb2dVertex
 10
26.15
 20
26.21603
  0
VERTEX
  5
8E
100
AcDbEntity
  8
Solder_Pad_1_Top
100
AcDbVertex
100
AcDb2dVertex
 10
26.15
 20
24.48398
  0
VERTEX
  5
8F
100
AcDbEntity
  8
Solder_Pad_1_Top
100
AcDbVertex
100
AcDb2dVertex
 10
27.65
 20
23.61795
  0
VERTEX
  5
90
100
AcDbEntity
  8
Solder_Pad_1_Top
100
AcDbVertex
100
AcDb2dVertex
 10
29.15
 20
24.48398
  0
VERTEX
  5
91
100
AcDbEntity
  8
Solder_Pad_1_Top
100
AcDbVertex
100
AcDb2dVertex
 10
29.15
 20
26.21603
  0
VERTEX
  5
92
100
AcDbEntity
  8
Solder_Pad_1_Top
100
AcDbVertex
100
AcDb2dVertex
 10
28.31173
 20
26.7
  0
VERTEX
  5
93
100
AcDbEntity
  8
Solder_Pad_1_Top
100
AcDbVertex
100
AcDb2dVertex
 10
26.98827
 20
26.7
  0
SEQEND
  5
94
100
AcDbEntity
  8
Solder_Pad_1_Top
  0
HATCH
  5
95
100
AcDbEntity
  8
Solder_Pad_1_Top
100
AcDbHatch
 10
0.0
 20
0.0
 30
0.0
210
0.0
220
0.0
230
1.0
  2
SOLID
 70
       1
 71
       1
 91
        1
 92
        1
 93
        4
 72
       1
 10
33.149999999999999
 20
12.483980000000001
 11
34.299999999999997
 21
11.82002
 72
       1
 10
34.299999999999997
 20
11.82002
 11
34.299999999999997
 21
14.87998
 72
       1
 10
34.299999999999997
 20
14.87998
 11
33.149999999999999
 21
14.21603
 72
       1
 10
33.149999999999999
 20
14.21603
 11
33.149999999999999
 21
12.483980000000001
 97
        0
 75
       0
 76
       2
 98
        1
 10
0.0
 20
0.0
  0
POLYLINE
  5
96
100
AcDbEntity
  8
Solder_Pad_1_Top
100
AcDb2dPolyline
 66
       1
 10
0.0
 20
0.0
 30
0.0
 70
       1
  0
VERTEX
  5
97
100
AcDbEntity
  8
Solder_Pad_1_Top
100
AcDbVertex
100
AcDb2dVertex
 10
34.3
 20
14.87998
  0
VERTEX
  5
98
100
AcDbEntity
  8
Solder_Pad_1_Top
100
AcDbVertex
100
AcDb2dVertex
 10
34.3
 20
14.87998
  0
VERTEX
  5
99
100
AcDbEntity
  8
Solder_Pad_1_Top
100
AcDbVertex
100
AcDb2dVertex
 10
33.15
 20
14.21603
  0
VERTEX
  5
9A
100
AcDbEntity
  8
Solder_Pad_1_Top
100
AcDbVertex
100
AcDb2dVertex
 10
33.15
 20
12.48398
  0
VERTEX
  5
9B
100
AcDbEntity
  8
Solder_Pad_1_Top
100
AcDbVertex
100
AcDb2dVertex
 10
34.3
 20
11.82002
  0
VERTEX
  5
9C
100
AcDbEntity
  8
Solder_Pad_1_Top
100
AcDbVertex
100
AcDb2dVertex
 10
34.3
 20
14.87998
  0
SEQEND
  5
9D
100
AcDbEntity
  8
Solder_Pad_1_Top
  0
HATCH
  5
9E
100
AcDbEntity
  8
Solder_Pad_1_Top
100
AcDbHatch
 10
0.0
 20
0.0
 30
0.0
210
0.0
220
0.0
230
1.0
  2
SOLID
 70
       1
 71
       1
 91
        1
 92
        1
 93
        6
 72
       1
 10
31.399999999999999
 20
21.483979999999999
 11
32.899999999999999
 21
20.61795
 72
       1
 10
32.899999999999999
 20
20.61795
 11
34.299999999999997
 21
21.42624
 72
       1
 10
34.299999999999997
 20
21.42624
 11
34.299999999999997
 21
23.273759999999999
 72
       1
 10
34.299999999999997
 20
23.273759999999999
 11
32.899999999999999
 21
24.082049999999999
 72
       1
 10
32.899999999999999
 20
24.082049999999999
 11
31.399999999999999
 21
23.21603
 72
       1
 10
31.399999999999999
 20
23.21603
 11
31.399999999999999
 21
21.483979999999999
 97
        0
 75
       0
 76
       2
 98
        1
 10
0.0
 20
0.0
  0
POLYLINE
  5
9F
100
AcDbEntity
  8
Solder_Pad_1_Top
100
AcDb2dPolyline
 66
       1
 10
0.0
 20
0.0
 30
0.0
 70
       1
  0
VERTEX
  5
A0
100
AcDbEntity
  8
Solder_Pad_1_Top
100
AcDbVertex
100
AcDb2dVertex
 10
34.3
 20
21.42624
  0
VERTEX
  5
A1
100
AcDbEntity
  8
Solder_Pad_1_Top
100
AcDbVertex
100
AcDb2dVertex
 10
34.3
 20
21.42624
  0
VERTEX
  5
A2
100
AcDbEntity
  8
Solder_Pad_1_Top
100
AcDbVertex
100
AcDb2dVertex
 10
32.9
 20
20.61795
  0
VERTEX
  5
A3
100
AcDbEntity
  8
Solder_Pad_1_Top
100
AcDbVertex
100
AcDb2dVertex
 10
31.4
 20
21.48398
  0
VERTEX
  5
A4
100
AcDbEntity
  8
Solder_Pad_1_Top
100
AcDbVertex
100
AcDb2dVertex
 10
31.4
 20
23.21603
  0
VERTEX
  5
A5
100
AcDbEntity
  8
Solder_Pad_1_Top
100
AcDbVertex
100
AcDb2dVertex
 10
32.9
 20
24.08205
  0
VERTEX
  5
A6
100
AcDbEntity
  8
Solder_Pad_1_Top
100
AcDbVertex
100
AcDb2dVertex
 10
34.3
 20
23.27376
  0
VERTEX
  5
A7
100
AcDbEntity
  8
Solder_Pad_1_Top
100
AcDbVertex
100
AcDb2dVertex
 10
34.3
 20
21.42624
  0
SEQEND
  5
A8
100
AcDbEntity
  8
Solder_Pad_1_Top
  0
HATCH
  5
A9
100
AcDbEntity
  8
Solder_Pad_1_Top
100
AcDbHatch
 10
0.0
 20
0.0
 30
0.0
210
0.0
220
0.0
230
1.0
  2
SOLID
 70
       1
 71
       1
 91
        1
 92
        1
 93
        6
 72
       1
 10
31.399999999999999
 20
15.483980000000001
 11
32.899999999999999
 21
14.61795
 72
       1
 10
32.899999999999999
 20
14.61795
 11
34.299999999999997
 21
15.42624
 72
       1
 10
34.299999999999997
 20
15.42624
 11
34.299999999999997
 21
17.273759999999999
 72
       1
 10
34.299999999999997
 20
17.273759999999999
 11
32.899999999999999
 21
18.082049999999999
 72
       1
 10
32.899999999999999
 20
18.082049999999999
 11
31.399999999999999
 21
17.21603
 72
       1
 10
31.399999999999999
 20
17.21603
 11
31.399999999999999
 21
15.483980000000001
 97
        0
 75
       0
 76
       2
 98
        1
 10
0.0
 20
0.0
  0
POLYLINE
  5
AA
100
AcDbEntity
  8
Solder_Pad_1_Top
100
AcDb2dPolyline
 66
       1
 10
0.0
 20
0.0
 30
0.0
 70
       1
  0
VERTEX
  5
AB
100
AcDbEntity
  8
Solder_Pad_1_Top
100
AcDbVertex
100
AcDb2dVertex
 10
34.3
 20
15.42624
  0
VERTEX
  5
AC
100
AcDbEntity
  8
Solder_Pad_1_Top
100
AcDbVertex
100
AcDb2dVertex
 10
34.3
 20
15.42624
  0
VERTEX
  5
AD
100
AcDbEntity
  8
Solder_Pad_1_Top
100
AcDbVertex
100
AcDb2dVertex
 10
32.9
 20
14.61795
  0
VERTEX
  5
AE
100
AcDbEntity
  8
Solder_Pad_1_Top
100
AcDbVertex
100
AcDb2dVertex
 10
31.4
 20
15.48398
  0
VERTEX
  5
AF
100
AcDbEntity
  8
Solder_Pad_1_Top
100
AcDbVertex
100
AcDb2dVertex
 10
31.4
 20
17.21603
  0
VERTEX
  5
B0
100
AcDbEntity
  8
Solder_Pad_1_Top
100
AcDbVertex
100
AcDb2dVertex
 10
32.9
 20
18.08205
  0
VERTEX
  5
B1
100
AcDbEntity
  8
Solder_Pad_1_Top
100
AcDbVertex
100
AcDb2dVertex
 10
34.3
 20
17.27376
  0
VERTEX
  5
B2
100
AcDbEntity
  8
Solder_Pad_1_Top
100
AcDbVertex
100
AcDb2dVertex
 10
34.3
 20
15.42624
  0
SEQEND
  5
B3
100
AcDbEntity
  8
Solder_Pad_1_Top
  0
HATCH
  5
B4
100
AcDbEntity
  8
Solder_Pad_1_Top
100
AcDbHatch
 10
0.0
 20
0.0
 30
0.0
210
0.0
220
0.0
230
1.0
  2
SOLID
 70
       1
 71
       1
 91
        1
 92
        1
 93
        6
 72
       1
 10
31.399999999999999
 20
9.4839800000000007
 11
32.899999999999999
 21
8.6179500000000004
 72
       1
 10
32.899999999999999
 20
8.6179500000000004
 11
34.299999999999997
 21
9.42624
 72
       1
 10
34.299999999999997
 20
9.42624
 11
34.299999999999997
 21
11.273759999999999
 72
       1
 10
34.299999999999997
 20
11.273759999999999
 11
32.899999999999999
 21
12.082050000000001
 72
       1
 10
32.899999999999999
 20
12.082050000000001
 11
31.399999999999999
 21
11.21603
 72
       1
 10
31.399999999999999
 20
11.21603
 11
31.399999999999999
 21
9.4839800000000007
 97
        0
 75
       0
 76
       2
 98
        1
 10
0.0
 20
0.0
  0
POLYLINE
  5
B5
100
AcDbEntity
  8
Solder_Pad_1_Top
100
AcDb2dPolyline
 66
       1
 10
0.0
 20
0.0
 30
0.0
 70
       1
  0
VERTEX
  5
B6
100
AcDbEntity
  8
Solder_Pad_1_Top
100
AcDbVertex
100
AcDb2dVertex
 10
34.3
 20
9.42624
  0
VERTEX
  5
B7
100
AcDbEntity
  8
Solder_Pad_1_Top
100
AcDbVertex
100
AcDb2dVertex
 10
34.3
 20
9.42624
  0
VERTEX
  5
B8
100
AcDbEntity
  8
Solder_Pad_1_Top
100
AcDbVertex
100
AcDb2dVertex
 10
32.9
 20
8.61795
  0
VERTEX
  5
B9
100
AcDbEntity
  8
Solder_Pad_1_Top
100
AcDbVertex
100
AcDb2dVertex
 10
31.4
 20
9.48398
  0
VERTEX
  5
BA
100
AcDbEntity
  8
Solder_Pad_1_Top
100
AcDbVertex
100
AcDb2dVertex
 10
31.4
 20
11.21603
  0
VERTEX
  5
BB
100
AcDbEntity
  8
Solder_Pad_1_Top
100
AcDbVertex
100
AcDb2dVertex
 10
32.9
 20
12.08205
  0
VERTEX
  5
BC
100
AcDbEntity
  8
Solder_Pad_1_Top
100
AcDbVertex
100
AcDb2dVertex
 10
34.3
 20
11.27376
  0
VERTEX
  5
BD
100
AcDbEntity
  8
Solder_Pad_1_Top
100
AcDbVertex
100
AcDb2dVertex
 10
34.3
 20
9.42624
  0
SEQEND
  5
BE
100
AcDbEntity
  8
Solder_Pad_1_Top
  0
HATCH
  5
BF
100
AcDbEntity
  8
Solder_Pad_1_Top
100
AcDbHatch
 10
0.0
 20
0.0
 30
0.0
210
0.0
220
0.0
230
1.0
  2
SOLID
 70
       1
 71
       1
 91
        1
 92
        1
 93
        7
 72
       1
 10
29.649999999999999
 20
0.48398
 11
30.48827
 21
0.0
 72
       1
 10
30.48827
 20
0.0
 11
31.811730000000001
 21
0.0
 72
       1
 10
31.811730000000001
 20
0.0
 11
32.649999999999999
 21
0.48398
 72
       1
 10
32.649999999999999
 20
0.48398
 11
32.649999999999999
 21
2.2160299999999999
 72
       1
 10
32.649999999999999
 20
2.2160299999999999
 11
31.149999999999999
 21
3.0820500000000002
 72
       1
 10
31.149999999999999
 20
3.0820500000000002
 11
29.649999999999999
 21
2.2160299999999999
 72
       1
 10
29.649999999999999
 20
2.2160299999999999
 11
29.649999999999999
 21
0.48398
 97
        0
 75
       0
 76
       2
 98
        1
 10
0.0
 20
0.0
  0
POLYLINE
  5
C0
100
AcDbEntity
  8
Solder_Pad_1_Top
100
AcDb2dPolyline
 66
       1
 10
0.0
 20
0.0
 30
0.0
 70
       1
  0
VERTEX
  5
C1
100
AcDbEntity
  8
Solder_Pad_1_Top
100
AcDbVertex
100
AcDb2dVertex
 10
31.81173
 20
0.0
  0
VERTEX
  5
C2
100
AcDbEntity
  8
Solder_Pad_1_Top
100
AcDbVertex
100
AcDb2dVertex
 10
31.81173
 20
0.0
  0
VERTEX
  5
C3
100
AcDbEntity
  8
Solder_Pad_1_Top
100
AcDbVertex
100
AcDb2dVertex
 10
32.65
 20
0.48398
  0
VERTEX
  5
C4
100
AcDbEntity
  8
Solder_Pad_1_Top
100
AcDbVertex
100
AcDb2dVertex
 10
32.65
 20
2.21603
  0
VERTEX
  5
C5
100
AcDbEntity
  8
Solder_Pad_1_Top
100
AcDbVertex
100
AcDb2dVertex
 10
31.15
 20
3.08205
  0
VERTEX
  5
C6
100
AcDbEntity
  8
Solder_Pad_1_Top
100
AcDbVertex
100
AcDb2dVertex
 10
29.65
 20
2.21603
  0
VERTEX
  5
C7
100
AcDbEntity
  8
Solder_Pad_1_Top
100
AcDbVertex
100
AcDb2dVertex
 10
29.65
 20
0.48398
  0
VERTEX
  5
C8
100
AcDbEntity
  8
Solder_Pad_1_Top
100
AcDbVertex
100
AcDb2dVertex
 10
30.48827
 20
0.0
  0
VERTEX
  5
C9
100
AcDbEntity
  8
Solder_Pad_1_Top
100
AcDbVertex
100
AcDb2dVertex
 10
31.81173
 20
0.0
  0
SEQEND
  5
CA
100
AcDbEntity
  8
Solder_Pad_1_Top
  0
HATCH
  5
CB
100
AcDbEntity
  8
Solder_Pad_1_Top
100
AcDbHatch
 10
0.0
 20
0.0
 30
0.0
210
0.0
220
0.0
230
1.0
  2
SOLID
 70
       1
 71
       1
 91
        1
 92
        1
 93
        7
 72
       1
 10
26.149999999999999
 20
0.48398
 11
26.98827
 21
0.0
 72
       1
 10
26.98827
 20
0.0
 11
28.311730000000001
 21
0.0
 72
       1
 10
28.311730000000001
 20
0.0
 11
29.149999999999999
 21
0.48398
 72
       1
 10
29.149999999999999
 20
0.48398
 11
29.149999999999999
 21
2.2160299999999999
 72
       1
 10
29.149999999999999
 20
2.2160299999999999
 11
27.649999999999999
 21
3.0820500000000002
 72
       1
 10
27.649999999999999
 20
3.0820500000000002
 11
26.149999999999999
 21
2.2160299999999999
 72
       1
 10
26.149999999999999
 20
2.2160299999999999
 11
26.149999999999999
 21
0.48398
 97
        0
 75
       0
 76
       2
 98
        1
 10
0.0
 20
0.0
  0
POLYLINE
  5
CC
100
AcDbEntity
  8
Solder_Pad_1_Top
100
AcDb2dPolyline
 66
       1
 10
0.0
 20
0.0
 30
0.0
 70
       1
  0
VERTEX
  5
CD
100
AcDbEntity
  8
Solder_Pad_1_Top
100
AcDbVertex
100
AcDb2dVertex
 10
28.31173
 20
0.0
  0
VERTEX
  5
CE
100
AcDbEntity
  8
Solder_Pad_1_Top
100
AcDbVertex
100
AcDb2dVertex
 10
28.31173
 20
0.0
  0
VERTEX
  5
CF
100
AcDbEntity
  8
Solder_Pad_1_Top
100
AcDbVertex
100
AcDb2dVertex
 10
29.15
 20
0.48398
  0
VERTEX
  5
D0
100
AcDbEntity
  8
Solder_Pad_1_Top
100
AcDbVertex
100
AcDb2dVertex
 10
29.15
 20
2.21603
  0
VERTEX
  5
D1
100
AcDbEntity
  8
Solder_Pad_1_Top
100
AcDbVertex
100
AcDb2dVertex
 10
27.65
 20
3.08205
  0
VERTEX
  5
D2
100
AcDbEntity
  8
Solder_Pad_1_Top
100
AcDbVertex
100
AcDb2dVertex
 10
26.15
 20
2.21603
  0
VERTEX
  5
D3
100
AcDbEntity
  8
Solder_Pad_1_Top
100
AcDbVertex
100
AcDb2dVertex
 10
26.15
 20
0.48398
  0
VERTEX
  5
D4
100
AcDbEntity
  8
Solder_Pad_1_Top
100
AcDbVertex
100
AcDb2dVertex
 10
26.98827
 20
0.0
  0
VERTEX
  5
D5
100
AcDbEntity
  8
Solder_Pad_1_Top
100
AcDbVertex
100
AcDb2dVertex
 10
28.31173
 20
0.0
  0
SEQEND
  5
D6
100
AcDbEntity
  8
Solder_Pad_1_Top
  0
HATCH
  5
D7
100
AcDbEntity
  8
Solder_Pad_1_Top
100
AcDbHatch
 10
0.0
 20
0.0
 30
0.0
210
0.0
220
0.0
230
1.0
  2
SOLID
 70
       1
 71
       1
 91
        1
 92
        1
 93
        7
 72
       1
 10
22.649999999999999
 20
0.48398
 11
23.48827
 21
0.0
 72
       1
 10
23.48827
 20
0.0
 11
24.811730000000001
 21
0.0
 72
       1
 10
24.811730000000001
 20
0.0
 11
25.649999999999999
 21
0.48398
 72
       1
 10
25.649999999999999
 20
0.48398
 11
25.649999999999999
 21
2.2160299999999999
 72
       1
 10
25.649999999999999
 20
2.2160299999999999
 11
24.149999999999999
 21
3.0820500000000002
 72
       1
 10
24.149999999999999
 20
3.0820500000000002
 11
22.649999999999999
 21
2.2160299999999999
 72
       1
 10
22.649999999999999
 20
2.2160299999999999
 11
22.649999999999999
 21
0.48398
 97
        0
 75
       0
 76
       2
 98
        1
 10
0.0
 20
0.0
  0
POLYLINE
  5
D8
100
AcDbEntity
  8
Solder_Pad_1_Top
100
AcDb2dPolyline
 66
       1
 10
0.0
 20
0.0
 30
0.0
 70
       1
  0
VERTEX
  5
D9
100
AcDbEntity
  8
Solder_Pad_1_Top
100
AcDbVertex
100
AcDb2dVertex
 10
24.81173
 20
0.0
  0
VERTEX
  5
DA
100
AcDbEntity
  8
Solder_Pad_1_Top
100
AcDbVertex
100
AcDb2dVertex
 10
24.81173
 20
0.0
  0
VERTEX
  5
DB
100
AcDbEntity
  8
Solder_Pad_1_Top
100
AcDbVertex
100
AcDb2dVertex
 10
25.65
 20
0.48398
  0
VERTEX
  5
DC
100
AcDbEntity
  8
Solder_Pad_1_Top
100
AcDbVertex
100
AcDb2dVertex
 10
25.65
 20
2.21603
  0
VERTEX
  5
DD
100
AcDbEntity
  8
Solder_Pad_1_Top
100
AcDbVertex
100
AcDb2dVertex
 10
24.15
 20
3.08205
  0
VERTEX
  5
DE
100
AcDbEntity
  8
Solder_Pad_1_Top
100
AcDbVertex
100
AcDb2dVertex
 10
22.65
 20
2.21603
  0
VERTEX
  5
DF
100
AcDbEntity
  8
Solder_Pad_1_Top
100
AcDbVertex
100
AcDb2dVertex
 10
22.65
 20
0.48398
  0
VERTEX
  5
E0
100
AcDbEntity
  8
Solder_Pad_1_Top
100
AcDbVertex
100
AcDb2dVertex
 10
23.48827
 20
0.0
  0
VERTEX
  5
E1
100
AcDbEntity
  8
Solder_Pad_1_Top
100
AcDbVertex
100
AcDb2dVertex
 10
24.81173
 20
0.0
  0
SEQEND
  5
E2
100
AcDbEntity
  8
Solder_Pad_1_Top
  0
HATCH
  5
E3
100
AcDbEntity
  8
Solder_Pad_1_Top
100
AcDbHatch
 10
0.0
 20
0.0
 30
0.0
210
0.0
220
0.0
230
1.0
  2
SOLID
 70
       1
 71
       1
 91
        1
 92
        1
 93
        7
 72
       1
 10
19.149999999999999
 20
0.48398
 11
19.98827
 21
0.0
 72
       1
 10
19.98827
 20
0.0
 11
21.311730000000001
 21
0.0
 72
       1
 10
21.311730000000001
 20
0.0
 11
22.149999999999999
 21
0.48398
 72
       1
 10
22.149999999999999
 20
0.48398
 11
22.149999999999999
 21
2.2160299999999999
 72
       1
 10
22.149999999999999
 20
2.2160299999999999
 11
20.649999999999999
 21
3.0820500000000002
 72
       1
 10
20.649999999999999
 20
3.0820500000000002
 11
19.149999999999999
 21
2.2160299999999999
 72
       1
 10
19.149999999999999
 20
2.2160299999999999
 11
19.149999999999999
 21
0.48398
 97
        0
 75
       0
 76
       2
 98
        1
 10
0.0
 20
0.0
  0
POLYLINE
  5
E4
100
AcDbEntity
  8
Solder_Pad_1_Top
100
AcDb2dPolyline
 66
       1
 10
0.0
 20
0.0
 30
0.0
 70
       1
  0
VERTEX
  5
E5
100
AcDbEntity
  8
Solder_Pad_1_Top
100
AcDbVertex
100
AcDb2dVertex
 10
21.31173
 20
0.0
  0
VERTEX
  5
E6
100
AcDbEntity
  8
Solder_Pad_1_Top
100
AcDbVertex
100
AcDb2dVertex
 10
21.31173
 20
0.0
  0
VERTEX
  5
E7
100
AcDbEntity
  8
Solder_Pad_1_Top
100
AcDbVertex
100
AcDb2dVertex
 10
22.15
 20
0.48398
  0
VERTEX
  5
E8
100
AcDbEntity
  8
Solder_Pad_1_Top
100
AcDbVertex
100
AcDb2dVertex
 10
22.15
 20
2.21603
  0
VERTEX
  5
E9
100
AcDbEntity
  8
Solder_Pad_1_Top
100
AcDbVertex
100
AcDb2dVertex
 10
20.65
 20
3.08205
  0
VERTEX
  5
EA
100
AcDbEntity
  8
Solder_Pad_1_Top
100
AcDbVertex
100
AcDb2dVertex
 10
19.15
 20
2.21603
  0
VERTEX
  5
EB
100
AcDbEntity
  8
Solder_Pad_1_Top
100
AcDbVertex
100
AcDb2dVertex
 10
19.15
 20
0.48398
  0
VERTEX
  5
EC
100
AcDbEntity
  8
Solder_Pad_1_Top
100
AcDbVertex
100
AcDb2dVertex
 10
19.98827
 20
0.0
  0
VERTEX
  5
ED
100
AcDbEntity
  8
Solder_Pad_1_Top
100
AcDbVertex
100
AcDb2dVertex
 10
21.31173
 20
0.0
  0
SEQEND
  5
EE
100
AcDbEntity
  8
Solder_Pad_1_Top
  0
HATCH
  5
EF
100
AcDbEntity
  8
Solder_Pad_1_Top
100
AcDbHatch
 10
0.0
 20
0.0
 30
0.0
210
0.0
220
0.0
230
1.0
  2
SOLID
 70
       1
 71
       1
 91
        1
 92
        1
 93
        7
 72
       1
 10
15.65
 20
0.48398
 11
16.48827
 21
0.0
 72
       1
 10
16.48827
 20
0.0
 11
17.811730000000001
 21
0.0
 72
       1
 10
17.811730000000001
 20
0.0
 11
18.649999999999999
 21
0.48398
 72
       1
 10
18.649999999999999
 20
0.48398
 11
18.649999999999999
 21
2.2160299999999999
 72
       1
 10
18.649999999999999
 20
2.2160299999999999
 11
17.149999999999999
 21
3.0820500000000002
 72
       1
 10
17.149999999999999
 20
3.0820500000000002
 11
15.65
 21
2.2160299999999999
 72
       1
 10
15.65
 20
2.2160299999999999
 11
15.65
 21
0.48398
 97
        0
 75
       0
 76
       2
 98
        1
 10
0.0
 20
0.0
  0
POLYLINE
  5
F0
100
AcDbEntity
  8
Solder_Pad_1_Top
100
AcDb2dPolyline
 66
       1
 10
0.0
 20
0.0
 30
0.0
 70
       1
  0
VERTEX
  5
F1
100
AcDbEntity
  8
Solder_Pad_1_Top
100
AcDbVertex
100
AcDb2dVertex
 10
17.81173
 20
0.0
  0
VERTEX
  5
F2
100
AcDbEntity
  8
Solder_Pad_1_Top
100
AcDbVertex
100
AcDb2dVertex
 10
17.81173
 20
0.0
  0
VERTEX
  5
F3
100
AcDbEntity
  8
Solder_Pad_1_Top
100
AcDbVertex
100
AcDb2dVertex
 10
18.65
 20
0.48398
  0
VERTEX
  5
F4
100
AcDbEntity
  8
Solder_Pad_1_Top
100
AcDbVertex
100
AcDb2dVertex
 10
18.65
 20
2.21603
  0
VERTEX
  5
F5
100
AcDbEntity
  8
Solder_Pad_1_Top
100
AcDbVertex
100
AcDb2dVertex
 10
17.15
 20
3.08205
  0
VERTEX
  5
F6
100
AcDbEntity
  8
Solder_Pad_1_Top
100
AcDbVertex
100
AcDb2dVertex
 10
15.65
 20
2.21603
  0
VERTEX
  5
F7
100
AcDbEntity
  8
Solder_Pad_1_Top
100
AcDbVertex
100
AcDb2dVertex
 10
15.65
 20
0.48398
  0
VERTEX
  5
F8
100
AcDbEntity
  8
Solder_Pad_1_Top
100
AcDbVertex
100
AcDb2dVertex
 10
16.48827
 20
0.0
  0
VERTEX
  5
F9
100
AcDbEntity
  8
Solder_Pad_1_Top
100
AcDbVertex
100
AcDb2dVertex
 10
17.81173
 20
0.0
  0
SEQEND
  5
FA
100
AcDbEntity
  8
Solder_Pad_1_Top
  0
HATCH
  5
FB
100
AcDbEntity
  8
Solder_Pad_1_Top
100
AcDbHatch
 10
0.0
 20
0.0
 30
0.0
210
0.0
220
0.0
230
1.0
  2
SOLID
 70
       1
 71
       1
 91
        1
 92
        1
 93
        7
 72
       1
 10
12.15
 20
0.48398
 11
12.98827
 21
0.0
 72
       1
 10
12.98827
 20
0.0
 11
14.311730000000001
 21
0.0
 72
       1
 10
14.311730000000001
 20
0.0
 11
15.15
 21
0.48398
 72
       1
 10
15.15
 20
0.48398
 11
15.15
 21
2.2160299999999999
 72
       1
 10
15.15
 20
2.2160299999999999
 11
13.65
 21
3.0820500000000002
 72
       1
 10
13.65
 20
3.0820500000000002
 11
12.15
 21
2.2160299999999999
 72
       1
 10
12.15
 20
2.2160299999999999
 11
12.15
 21
0.48398
 97
        0
 75
       0
 76
       2
 98
        1
 10
0.0
 20
0.0
  0
POLYLINE
  5
FC
100
AcDbEntity
  8
Solder_Pad_1_Top
100
AcDb2dPolyline
 66
       1
 10
0.0
 20
0.0
 30
0.0
 70
       1
  0
VERTEX
  5
FD
100
AcDbEntity
  8
Solder_Pad_1_Top
100
AcDbVertex
100
AcDb2dVertex
 10
14.31173
 20
0.0
  0
VERTEX
  5
FE
100
AcDbEntity
  8
Solder_Pad_1_Top
100
AcDbVertex
100
AcDb2dVertex
 10
14.31173
 20
0.0
  0
VERTEX
  5
FF
100
AcDbEntity
  8
Solder_Pad_1_Top
100
AcDbVertex
100
AcDb2dVertex
 10
15.15
 20
0.48398
  0
VERTEX
  5
100
100
AcDbEntity
  8
Solder_Pad_1_Top
100
AcDbVertex
100
AcDb2dVertex
 10
15.15
 20
2.21603
  0
VERTEX
  5
101
100
AcDbEntity
  8
Solder_Pad_1_Top
100
AcDbVertex
100
AcDb2dVertex
 10
13.65
 20
3.08205
  0
VERTEX
  5
102
100
AcDbEntity
  8
Solder_Pad_1_Top
100
AcDbVertex
100
AcDb2dVertex
 10
12.15
 20
2.21603
  0
VERTEX
  5
103
100
AcDbEntity
  8
Solder_Pad_1_Top
100
AcDbVertex
100
AcDb2dVertex
 10
12.15
 20
0.48398
  0
VERTEX
  5
104
100
AcDbEntity
  8
Solder_Pad_1_Top
100
AcDbVertex
100
AcDb2dVertex
 10
12.98827
 20
0.0
  0
VERTEX
  5
105
100
AcDbEntity
  8
Solder_Pad_1_Top
100
AcDbVertex
100
AcDb2dVertex
 10
14.31173
 20
0.0
  0
SEQEND
  5
106
100
AcDbEntity
  8
Solder_Pad_1_Top
  0
HATCH
  5
107
100
AcDbEntity
  8
Solder_Pad_1_Top
100
AcDbHatch
 10
0.0
 20
0.0
 30
0.0
210
0.0
220
0.0
230
1.0
  2
SOLID
 70
       1
 71
       1
 91
        1
 92
        1
 93
        7
 72
       1
 10
8.6500000000000004
 20
0.48398
 11
9.48827
 21
0.0
 72
       1
 10
9.48827
 20
0.0
 11
10.811730000000001
 21
0.0
 72
       1
 10
10.811730000000001
 20
0.0
 11
11.65
 21
0.48398
 72
       1
 10
11.65
 20
0.48398
 11
11.65
 21
2.2160299999999999
 72
       1
 10
11.65
 20
2.2160299999999999
 11
10.15
 21
3.0820500000000002
 72
       1
 10
10.15
 20
3.0820500000000002
 11
8.6500000000000004
 21
2.2160299999999999
 72
       1
 10
8.6500000000000004
 20
2.2160299999999999
 11
8.6500000000000004
 21
0.48398
 97
        0
 75
       0
 76
       2
 98
        1
 10
0.0
 20
0.0
  0
POLYLINE
  5
108
100
AcDbEntity
  8
Solder_Pad_1_Top
100
AcDb2dPolyline
 66
       1
 10
0.0
 20
0.0
 30
0.0
 70
       1
  0
VERTEX
  5
109
100
AcDbEntity
  8
Solder_Pad_1_Top
100
AcDbVertex
100
AcDb2dVertex
 10
10.81173
 20
0.0
  0
VERTEX
  5
10A
100
AcDbEntity
  8
Solder_Pad_1_Top
100
AcDbVertex
100
AcDb2dVertex
 10
10.81173
 20
0.0
  0
VERTEX
  5
10B
100
AcDbEntity
  8
Solder_Pad_1_Top
100
AcDbVertex
100
AcDb2dVertex
 10
11.65
 20
0.48398
  0
VERTEX
  5
10C
100
AcDbEntity
  8
Solder_Pad_1_Top
100
AcDbVertex
100
AcDb2dVertex
 10
11.65
 20
2.21603
  0
VERTEX
  5
10D
100
AcDbEntity
  8
Solder_Pad_1_Top
100
AcDbVertex
100
AcDb2dVertex
 10
10.15
 20
3.08205
  0
VERTEX
  5
10E
100
AcDbEntity
  8
Solder_Pad_1_Top
100
AcDbVertex
100
AcDb2dVertex
 10
8.65
 20
2.21603
  0
VERTEX
  5
10F
100
AcDbEntity
  8
Solder_Pad_1_Top
100
AcDbVertex
100
AcDb2dVertex
 10
8.65
 20
0.48398
  0
VERTEX
  5
110
100
AcDbEntity
  8
Solder_Pad_1_Top
100
AcDbVertex
100
AcDb2dVertex
 10
9.48827
 20
0.0
  0
VERTEX
  5
111
100
AcDbEntity
  8
Solder_Pad_1_Top
100
AcDbVertex
100
AcDb2dVertex
 10
10.81173
 20
0.0
  0
SEQEND
  5
112
100
AcDbEntity
  8
Solder_Pad_1_Top
  0
HATCH
  5
113
100
AcDbEntity
  8
Solder_Pad_1_Top
100
AcDbHatch
 10
0.0
 20
0.0
 30
0.0
210
0.0
220
0.0
230
1.0
  2
SOLID
 70
       1
 71
       1
 91
        1
 92
        1
 93
        7
 72
       1
 10
5.1500000000000004
 20
0.48398
 11
5.98827
 21
0.0
 72
       1
 10
5.98827
 20
0.0
 11
7.3117299999999998
 21
0.0
 72
       1
 10
7.3117299999999998
 20
0.0
 11
8.1500000000000004
 21
0.48398
 72
       1
 10
8.1500000000000004
 20
0.48398
 11
8.1500000000000004
 21
2.2160299999999999
 72
       1
 10
8.1500000000000004
 20
2.2160299999999999
 11
6.6500000000000004
 21
3.0820500000000002
 72
       1
 10
6.6500000000000004
 20
3.0820500000000002
 11
5.1500000000000004
 21
2.2160299999999999
 72
       1
 10
5.1500000000000004
 20
2.2160299999999999
 11
5.1500000000000004
 21
0.48398
 97
        0
 75
       0
 76
       2
 98
        1
 10
0.0
 20
0.0
  0
POLYLINE
  5
114
100
AcDbEntity
  8
Solder_Pad_1_Top
100
AcDb2dPolyline
 66
       1
 10
0.0
 20
0.0
 30
0.0
 70
       1
  0
VERTEX
  5
115
100
AcDbEntity
  8
Solder_Pad_1_Top
100
AcDbVertex
100
AcDb2dVertex
 10
7.31173
 20
0.0
  0
VERTEX
  5
116
100
AcDbEntity
  8
Solder_Pad_1_Top
100
AcDbVertex
100
AcDb2dVertex
 10
7.31173
 20
0.0
  0
VERTEX
  5
117
100
AcDbEntity
  8
Solder_Pad_1_Top
100
AcDbVertex
100
AcDb2dVertex
 10
8.15
 20
0.48398
  0
VERTEX
  5
118
100
AcDbEntity
  8
Solder_Pad_1_Top
100
AcDbVertex
100
AcDb2dVertex
 10
8.15
 20
2.21603
  0
VERTEX
  5
119
100
AcDbEntity
  8
Solder_Pad_1_Top
100
AcDbVertex
100
AcDb2dVertex
 10
6.65
 20
3.08205
  0
VERTEX
  5
11A
100
AcDbEntity
  8
Solder_Pad_1_Top
100
AcDbVertex
100
AcDb2dVertex
 10
5.15
 20
2.21603
  0
VERTEX
  5
11B
100
AcDbEntity
  8
Solder_Pad_1_Top
100
AcDbVertex
100
AcDb2dVertex
 10
5.15
 20
0.48398
  0
VERTEX
  5
11C
100
AcDbEntity
  8
Solder_Pad_1_Top
100
AcDbVertex
100
AcDb2dVertex
 10
5.98827
 20
0.0
  0
VERTEX
  5
11D
100
AcDbEntity
  8
Solder_Pad_1_Top
100
AcDbVertex
100
AcDb2dVertex
 10
7.31173
 20
0.0
  0
SEQEND
  5
11E
100
AcDbEntity
  8
Solder_Pad_1_Top
  0
HATCH
  5
11F
100
AcDbEntity
  8
Solder_Pad_1_Top
100
AcDbHatch
 10
0.0
 20
0.0
 30
0.0
210
0.0
220
0.0
230
1.0
  2
SOLID
 70
       1
 71
       1
 91
        1
 92
        1
 93
        4
 72
       1
 10
0.0
 20
5.8700200000000002
 11
1.1499999999999999
 21
6.5339799999999997
 72
       1
 10
1.1499999999999999
 20
6.5339799999999997
 11
1.1499999999999999
 21
8.2660300000000007
 72
       1
 10
1.1499999999999999
 20
8.2660300000000007
 11
0.0
 21
8.9299800000000005
 72
       1
 10
0.0
 20
8.9299800000000005
 11
0.0
 21
5.8700200000000002
 97
        0
 75
       0
 76
       2
 98
        1
 10
0.0
 20
0.0
  0
POLYLINE
  5
120
100
AcDbEntity
  8
Solder_Pad_1_Top
100
AcDb2dPolyline
 66
       1
 10
0.0
 20
0.0
 30
0.0
 70
       1
  0
VERTEX
  5
121
100
AcDbEntity
  8
Solder_Pad_1_Top
100
AcDbVertex
100
AcDb2dVertex
 10
0.0
 20
5.87002
  0
VERTEX
  5
122
100
AcDbEntity
  8
Solder_Pad_1_Top
100
AcDbVertex
100
AcDb2dVertex
 10
0.0
 20
5.87002
  0
VERTEX
  5
123
100
AcDbEntity
  8
Solder_Pad_1_Top
100
AcDbVertex
100
AcDb2dVertex
 10
1.15
 20
6.53398
  0
VERTEX
  5
124
100
AcDbEntity
  8
Solder_Pad_1_Top
100
AcDbVertex
100
AcDb2dVertex
 10
1.15
 20
8.26603
  0
VERTEX
  5
125
100
AcDbEntity
  8
Solder_Pad_1_Top
100
AcDbVertex
100
AcDb2dVertex
 10
0.0
 20
8.92998
  0
VERTEX
  5
126
100
AcDbEntity
  8
Solder_Pad_1_Top
100
AcDbVertex
100
AcDb2dVertex
 10
0.0
 20
5.87002
  0
SEQEND
  5
127
100
AcDbEntity
  8
Solder_Pad_1_Top
  0
HATCH
  5
128
100
AcDbEntity
  8
Solder_Pad_1_Top
100
AcDbHatch
 10
0.0
 20
0.0
 30
0.0
210
0.0
220
0.0
230
1.0
  2
SOLID
 70
       1
 71
       1
 91
        1
 92
        1
 93
        4
 72
       1
 10
0.0
 20
11.87002
 11
1.1499999999999999
 21
12.53398
 72
       1
 10
1.1499999999999999
 20
12.53398
 11
1.1499999999999999
 21
14.266030000000001
 72
       1
 10
1.1499999999999999
 20
14.266030000000001
 11
0.0
 21
14.92998
 72
       1
 10
0.0
 20
14.92998
 11
0.0
 21
11.87002
 97
        0
 75
       0
 76
       2
 98
        1
 10
0.0
 20
0.0
  0
POLYLINE
  5
129
100
AcDbEntity
  8
Solder_Pad_1_Top
100
AcDb2dPolyline
 66
       1
 10
0.0
 20
0.0
 30
0.0
 70
       1
  0
VERTEX
  5
12A
100
AcDbEntity
  8
Solder_Pad_1_Top
100
AcDbVertex
100
AcDb2dVertex
 10
0.0
 20
11.87002
  0
VERTEX
  5
12B
100
AcDbEntity
  8
Solder_Pad_1_Top
100
AcDbVertex
100
AcDb2dVertex
 10
0.0
 20
11.87002
  0
VERTEX
  5
12C
100
AcDbEntity
  8
Solder_Pad_1_Top
100
AcDbVertex
100
AcDb2dVertex
 10
1.15
 20
12.53398
  0
VERTEX
  5
12D
100
AcDbEntity
  8
Solder_Pad_1_Top
100
AcDbVertex
100
AcDb2dVertex
 10
1.15
 20
14.26603
  0
VERTEX
  5
12E
100
AcDbEntity
  8
Solder_Pad_1_Top
100
AcDbVertex
100
AcDb2dVertex
 10
0.0
 20
14.92998
  0
VERTEX
  5
12F
100
AcDbEntity
  8
Solder_Pad_1_Top
100
AcDbVertex
100
AcDb2dVertex
 10
0.0
 20
11.87002
  0
SEQEND
  5
130
100
AcDbEntity
  8
Solder_Pad_1_Top
  0
HATCH
  5
131
100
AcDbEntity
  8
Solder_Pad_1_Top
100
AcDbHatch
 10
0.0
 20
0.0
 30
0.0
210
0.0
220
0.0
230
1.0
  2
SOLID
 70
       1
 71
       1
 91
        1
 92
        1
 93
        6
 72
       1
 10
0.0
 20
3.42624
 11
1.3999999999999999
 21
2.61795
 72
       1
 10
1.3999999999999999
 20
2.61795
 11
2.8999999999999999
 21
3.4839799999999999
 72
       1
 10
2.8999999999999999
 20
3.4839799999999999
 11
2.8999999999999999
 21
5.2160299999999999
 72
       1
 10
2.8999999999999999
 20
5.2160299999999999
 11
1.3999999999999999
 21
6.0820499999999997
 72
       1
 10
1.3999999999999999
 20
6.0820499999999997
 11
0.0
 21
5.2737600000000002
 72
       1
 10
0.0
 20
5.2737600000000002
 11
0.0
 21
3.42624
 97
        0
 75
       0
 76
       2
 98
        1
 10
0.0
 20
0.0
  0
POLYLINE
  5
132
100
AcDbEntity
  8
Solder_Pad_1_Top
100
AcDb2dPolyline
 66
       1
 10
0.0
 20
0.0
 30
0.0
 70
       1
  0
VERTEX
  5
133
100
AcDbEntity
  8
Solder_Pad_1_Top
100
AcDbVertex
100
AcDb2dVertex
 10
0.0
 20
3.42624
  0
VERTEX
  5
134
100
AcDbEntity
  8
Solder_Pad_1_Top
100
AcDbVertex
100
AcDb2dVertex
 10
0.0
 20
3.42624
  0
VERTEX
  5
135
100
AcDbEntity
  8
Solder_Pad_1_Top
100
AcDbVertex
100
AcDb2dVertex
 10
1.4
 20
2.61795
  0
VERTEX
  5
136
100
AcDbEntity
  8
Solder_Pad_1_Top
100
AcDbVertex
100
AcDb2dVertex
 10
2.9
 20
3.48398
  0
VERTEX
  5
137
100
AcDbEntity
  8
Solder_Pad_1_Top
100
AcDbVertex
100
AcDb2dVertex
 10
2.9
 20
5.21603
  0
VERTEX
  5
138
100
AcDbEntity
  8
Solder_Pad_1_Top
100
AcDbVertex
100
AcDb2dVertex
 10
1.4
 20
6.08205
  0
VERTEX
  5
139
100
AcDbEntity
  8
Solder_Pad_1_Top
100
AcDbVertex
100
AcDb2dVertex
 10
0.0
 20
5.27376
  0
VERTEX
  5
13A
100
AcDbEntity
  8
Solder_Pad_1_Top
100
AcDbVertex
100
AcDb2dVertex
 10
0.0
 20
3.42624
  0
SEQEND
  5
13B
100
AcDbEntity
  8
Solder_Pad_1_Top
  0
HATCH
  5
13C
100
AcDbEntity
  8
Solder_Pad_1_Top
100
AcDbHatch
 10
0.0
 20
0.0
 30
0.0
210
0.0
220
0.0
230
1.0
  2
SOLID
 70
       1
 71
       1
 91
        1
 92
        1
 93
        6
 72
       1
 10
0.0
 20
9.3762399999999992
 11
1.3999999999999999
 21
8.5679499999999997
 72
       1
 10
1.3999999999999999
 20
8.5679499999999997
 11
2.8999999999999999
 21
9.43398
 72
       1
 10
2.8999999999999999
 20
9.43398
 11
2.8999999999999999
 21
11.166029999999999
 72
       1
 10
2.8999999999999999
 20
11.166029999999999
 11
1.3999999999999999
 21
12.03205
 72
       1
 10
1.3999999999999999
 20
12.03205
 11
0.0
 21
11.22376
 72
       1
 10
0.0
 20
11.22376
 11
0.0
 21
9.3762399999999992
 97
        0
 75
       0
 76
       2
 98
        1
 10
0.0
 20
0.0
  0
POLYLINE
  5
13D
100
AcDbEntity
  8
Solder_Pad_1_Top
100
AcDb2dPolyline
 66
       1
 10
0.0
 20
0.0
 30
0.0
 70
       1
  0
VERTEX
  5
13E
100
AcDbEntity
  8
Solder_Pad_1_Top
100
AcDbVertex
100
AcDb2dVertex
 10
0.0
 20
9.37624
  0
VERTEX
  5
13F
100
AcDbEntity
  8
Solder_Pad_1_Top
100
AcDbVertex
100
AcDb2dVertex
 10
0.0
 20
9.37624
  0
VERTEX
  5
140
100
AcDbEntity
  8
Solder_Pad_1_Top
100
AcDbVertex
100
AcDb2dVertex
 10
1.4
 20
8.56795
  0
VERTEX
  5
141
100
AcDbEntity
  8
Solder_Pad_1_Top
100
AcDbVertex
100
AcDb2dVertex
 10
2.9
 20
9.43398
  0
VERTEX
  5
142
100
AcDbEntity
  8
Solder_Pad_1_Top
100
AcDbVertex
100
AcDb2dVertex
 10
2.9
 20
11.16603
  0
VERTEX
  5
143
100
AcDbEntity
  8
Solder_Pad_1_Top
100
AcDbVertex
100
AcDb2dVertex
 10
1.4
 20
12.03205
  0
VERTEX
  5
144
100
AcDbEntity
  8
Solder_Pad_1_Top
100
AcDbVertex
100
AcDb2dVertex
 10
0.0
 20
11.22376
  0
VERTEX
  5
145
100
AcDbEntity
  8
Solder_Pad_1_Top
100
AcDbVertex
100
AcDb2dVertex
 10
0.0
 20
9.37624
  0
SEQEND
  5
146
100
AcDbEntity
  8
Solder_Pad_1_Top
  0
HATCH
  5
147
100
AcDbEntity
  8
Solder_Pad_1_Top
100
AcDbHatch
 10
0.0
 20
0.0
 30
0.0
210
0.0
220
0.0
230
1.0
  2
SOLID
 70
       1
 71
       1
 91
        1
 92
        1
 93
        6
 72
       1
 10
0.0
 20
15.42624
 11
1.3999999999999999
 21
14.61795
 72
       1
 10
1.3999999999999999
 20
14.61795
 11
2.8999999999999999
 21
15.483980000000001
 72
       1
 10
2.8999999999999999
 20
15.483980000000001
 11
2.8999999999999999
 21
17.21603
 72
       1
 10
2.8999999999999999
 20
17.21603
 11
1.3999999999999999
 21
18.082049999999999
 72
       1
 10
1.3999999999999999
 20
18.082049999999999
 11
0.0
 21
17.273759999999999
 72
       1
 10
0.0
 20
17.273759999999999
 11
0.0
 21
15.42624
 97
        0
 75
       0
 76
       2
 98
        1
 10
0.0
 20
0.0
  0
POLYLINE
  5
148
100
AcDbEntity
  8
Solder_Pad_1_Top
100
AcDb2dPolyline
 66
       1
 10
0.0
 20
0.0
 30
0.0
 70
       1
  0
VERTEX
  5
149
100
AcDbEntity
  8
Solder_Pad_1_Top
100
AcDbVertex
100
AcDb2dVertex
 10
0.0
 20
15.42624
  0
VERTEX
  5
14A
100
AcDbEntity
  8
Solder_Pad_1_Top
100
AcDbVertex
100
AcDb2dVertex
 10
0.0
 20
15.42624
  0
VERTEX
  5
14B
100
AcDbEntity
  8
Solder_Pad_1_Top
100
AcDbVertex
100
AcDb2dVertex
 10
1.4
 20
14.61795
  0
VERTEX
  5
14C
100
AcDbEntity
  8
Solder_Pad_1_Top
100
AcDbVertex
100
AcDb2dVertex
 10
2.9
 20
15.48398
  0
VERTEX
  5
14D
100
AcDbEntity
  8
Solder_Pad_1_Top
100
AcDbVertex
100
AcDb2dVertex
 10
2.9
 20
17.21603
  0
VERTEX
  5
14E
100
AcDbEntity
  8
Solder_Pad_1_Top
100
AcDbVertex
100
AcDb2dVertex
 10
1.4
 20
18.08205
  0
VERTEX
  5
14F
100
AcDbEntity
  8
Solder_Pad_1_Top
100
AcDbVertex
100
AcDb2dVertex
 10
0.0
 20
17.27376
  0
VERTEX
  5
150
100
AcDbEntity
  8
Solder_Pad_1_Top
100
AcDbVertex
100
AcDb2dVertex
 10
0.0
 20
15.42624
  0
SEQEND
  5
151
100
AcDbEntity
  8
Solder_Pad_1_Top
  0
HATCH
  5
152
100
AcDbEntity
  8
Solder_Pad_1_Top
100
AcDbHatch
 10
0.0
 20
0.0
 30
0.0
210
0.0
220
0.0
230
1.0
  2
SOLID
 70
       1
 71
       1
 91
        1
 92
        1
 93
        5
 72
       1
 10
0.0
 20
23.82002
 11
1.1499999999999999
 21
24.483979999999999
 72
       1
 10
1.1499999999999999
 20
24.483979999999999
 11
1.1499999999999999
 21
26.21603
 72
       1
 10
1.1499999999999999
 20
26.21603
 11
0.31173
 21
26.699999999999999
 72
       1
 10
0.31173
 20
26.699999999999999
 11
0.0
 21
26.699999999999999
 72
       1
 10
0.0
 20
26.699999999999999
 11
0.0
 21
23.82002
 97
        0
 75
       0
 76
       2
 98
        1
 10
0.0
 20
0.0
  0
POLYLINE
  5
153
100
AcDbEntity
  8
Solder_Pad_1_Top
100
AcDb2dPolyline
 66
       1
 10
0.0
 20
0.0
 30
0.0
 70
       1
  0
VERTEX
  5
154
100
AcDbEntity
  8
Solder_Pad_1_Top
100
AcDbVertex
100
AcDb2dVertex
 10
0.31173
 20
26.7
  0
VERTEX
  5
155
100
AcDbEntity
  8
Solder_Pad_1_Top
100
AcDbVertex
100
AcDb2dVertex
 10
0.31173
 20
26.7
  0
VERTEX
  5
156
100
AcDbEntity
  8
Solder_Pad_1_Top
100
AcDbVertex
100
AcDb2dVertex
 10
0.0
 20
26.7
  0
VERTEX
  5
157
100
AcDbEntity
  8
Solder_Pad_1_Top
100
AcDbVertex
100
AcDb2dVertex
 10
0.0
 20
23.82002
  0
VERTEX
  5
158
100
AcDbEntity
  8
Solder_Pad_1_Top
100
AcDbVertex
100
AcDb2dVertex
 10
1.15
 20
24.48398
  0
VERTEX
  5
159
100
AcDbEntity
  8
Solder_Pad_1_Top
100
AcDbVertex
100
AcDb2dVertex
 10
1.15
 20
26.21603
  0
VERTEX
  5
15A
100
AcDbEntity
  8
Solder_Pad_1_Top
100
AcDbVertex
100
AcDb2dVertex
 10
0.31173
 20
26.7
  0
SEQEND
  5
15B
100
AcDbEntity
  8
Solder_Pad_1_Top
  0
HATCH
  5
15C
100
AcDbEntity
  8
Solder_Pad_1_Top
100
AcDbHatch
 10
0.0
 20
0.0
 30
0.0
210
0.0
220
0.0
230
1.0
  2
SOLID
 70
       1
 71
       1
 91
        1
 92
        1
 93
        7
 72
       1
 10
29.649999999999999
 20
24.483979999999999
 11
31.149999999999999
 21
23.61795
 72
       1
 10
31.149999999999999
 20
23.61795
 11
32.649999999999999
 21
24.483979999999999
 72
       1
 10
32.649999999999999
 20
24.483979999999999
 11
32.649999999999999
 21
26.21603
 72
       1
 10
32.649999999999999
 20
26.21603
 11
31.811730000000001
 21
26.699999999999999
 72
       1
 10
31.811730000000001
 20
26.699999999999999
 11
30.48827
 21
26.699999999999999
 72
       1
 10
30.48827
 20
26.699999999999999
 11
29.649999999999999
 21
26.21603
 72
       1
 10
29.649999999999999
 20
26.21603
 11
29.649999999999999
 21
24.483979999999999
 97
        0
 75
       0
 76
       2
 98
        1
 10
0.0
 20
0.0
  0
POLYLINE
  5
15D
100
AcDbEntity
  8
Solder_Pad_1_Top
100
AcDb2dPolyline
 66
       1
 10
0.0
 20
0.0
 30
0.0
 70
       1
  0
VERTEX
  5
15E
100
AcDbEntity
  8
Solder_Pad_1_Top
100
AcDbVertex
100
AcDb2dVertex
 10
30.48827
 20
26.7
  0
VERTEX
  5
15F
100
AcDbEntity
  8
Solder_Pad_1_Top
100
AcDbVertex
100
AcDb2dVertex
 10
30.48827
 20
26.7
  0
VERTEX
  5
160
100
AcDbEntity
  8
Solder_Pad_1_Top
100
AcDbVertex
100
AcDb2dVertex
 10
29.65
 20
26.21603
  0
VERTEX
  5
161
100
AcDbEntity
  8
Solder_Pad_1_Top
100
AcDbVertex
100
AcDb2dVertex
 10
29.65
 20
24.48398
  0
VERTEX
  5
162
100
AcDbEntity
  8
Solder_Pad_1_Top
100
AcDbVertex
100
AcDb2dVertex
 10
31.15
 20
23.61795
  0
VERTEX
  5
163
100
AcDbEntity
  8
Solder_Pad_1_Top
100
AcDbVertex
100
AcDb2dVertex
 10
32.65
 20
24.48398
  0
VERTEX
  5
164
100
AcDbEntity
  8
Solder_Pad_1_Top
100
AcDbVertex
100
AcDb2dVertex
 10
32.65
 20
26.21603
  0
VERTEX
  5
165
100
AcDbEntity
  8
Solder_Pad_1_Top
100
AcDbVertex
100
AcDb2dVertex
 10
31.81173
 20
26.7
  0
VERTEX
  5
166
100
AcDbEntity
  8
Solder_Pad_1_Top
100
AcDbVertex
100
AcDb2dVertex
 10
30.48827
 20
26.7
  0
SEQEND
  5
167
100
AcDbEntity
  8
Solder_Pad_1_Top
  0
HATCH
  5
168
100
AcDbEntity
  8
Solder_Pad_1_Top
100
AcDbHatch
 10
0.0
 20
0.0
 30
0.0
210
0.0
220
0.0
230
1.0
  2
SOLID
 70
       1
 71
       1
 91
        1
 92
        1
 93
        5
 72
       1
 10
33.149999999999999
 20
24.483979999999999
 11
34.299999999999997
 21
23.82002
 72
       1
 10
34.299999999999997
 20
23.82002
 11
34.299999999999997
 21
26.699999999999999
 72
       1
 10
34.299999999999997
 20
26.699999999999999
 11
33.98827
 21
26.699999999999999
 72
       1
 10
33.98827
 20
26.699999999999999
 11
33.149999999999999
 21
26.21603
 72
       1
 10
33.149999999999999
 20
26.21603
 11
33.149999999999999
 21
24.483979999999999
 97
        0
 75
       0
 76
       2
 98
        1
 10
0.0
 20
0.0
  0
POLYLINE
  5
169
100
AcDbEntity
  8
Solder_Pad_1_Top
100
AcDb2dPolyline
 66
       1
 10
0.0
 20
0.0
 30
0.0
 70
       1
  0
VERTEX
  5
16A
100
AcDbEntity
  8
Solder_Pad_1_Top
100
AcDbVertex
100
AcDb2dVertex
 10
33.98827
 20
26.7
  0
VERTEX
  5
16B
100
AcDbEntity
  8
Solder_Pad_1_Top
100
AcDbVertex
100
AcDb2dVertex
 10
33.98827
 20
26.7
  0
VERTEX
  5
16C
100
AcDbEntity
  8
Solder_Pad_1_Top
100
AcDbVertex
100
AcDb2dVertex
 10
33.15
 20
26.21603
  0
VERTEX
  5
16D
100
AcDbEntity
  8
Solder_Pad_1_Top
100
AcDbVertex
100
AcDb2dVertex
 10
33.15
 20
24.48398
  0
VERTEX
  5
16E
100
AcDbEntity
  8
Solder_Pad_1_Top
100
AcDbVertex
100
AcDb2dVertex
 10
34.3
 20
23.82002
  0
VERTEX
  5
16F
100
AcDbEntity
  8
Solder_Pad_1_Top
100
AcDbVertex
100
AcDb2dVertex
 10
34.3
 20
26.7
  0
VERTEX
  5
170
100
AcDbEntity
  8
Solder_Pad_1_Top
100
AcDbVertex
100
AcDb2dVertex
 10
33.98827
 20
26.7
  0
SEQEND
  5
171
100
AcDbEntity
  8
Solder_Pad_1_Top
  0
HATCH
  5
172
100
AcDbEntity
  8
Solder_Pad_1_Top
100
AcDbHatch
 10
0.0
 20
0.0
 30
0.0
210
0.0
220
0.0
230
1.0
  2
SOLID
 70
       1
 71
       1
 91
        1
 92
        1
 93
        4
 72
       1
 10
33.149999999999999
 20
6.4839799999999999
 11
34.299999999999997
 21
5.8200200000000004
 72
       1
 10
34.299999999999997
 20
5.8200200000000004
 11
34.299999999999997
 21
8.8799799999999998
 72
       1
 10
34.299999999999997
 20
8.8799799999999998
 11
33.149999999999999
 21
8.2160299999999999
 72
       1
 10
33.149999999999999
 20
8.2160299999999999
 11
33.149999999999999
 21
6.4839799999999999
 97
        0
 75
       0
 76
       2
 98
        1
 10
0.0
 20
0.0
  0
POLYLINE
  5
173
100
AcDbEntity
  8
Solder_Pad_1_Top
100
AcDb2dPolyline
 66
       1
 10
0.0
 20
0.0
 30
0.0
 70
       1
  0
VERTEX
  5
174
100
AcDbEntity
  8
Solder_Pad_1_Top
100
AcDbVertex
100
AcDb2dVertex
 10
34.3
 20
8.87998
  0
VERTEX
  5
175
100
AcDbEntity
  8
Solder_Pad_1_Top
100
AcDbVertex
100
AcDb2dVertex
 10
34.3
 20
8.87998
  0
VERTEX
  5
176
100
AcDbEntity
  8
Solder_Pad_1_Top
100
AcDbVertex
100
AcDb2dVertex
 10
33.15
 20
8.21603
  0
VERTEX
  5
177
100
AcDbEntity
  8
Solder_Pad_1_Top
100
AcDbVertex
100
AcDb2dVertex
 10
33.15
 20
6.48398
  0
VERTEX
  5
178
100
AcDbEntity
  8
Solder_Pad_1_Top
100
AcDbVertex
100
AcDb2dVertex
 10
34.3
 20
5.82002
  0
VERTEX
  5
179
100
AcDbEntity
  8
Solder_Pad_1_Top
100
AcDbVertex
100
AcDb2dVertex
 10
34.3
 20
8.87998
  0
SEQEND
  5
17A
100
AcDbEntity
  8
Solder_Pad_1_Top
  0
HATCH
  5
17B
100
AcDbEntity
  8
Solder_Pad_1_Top
100
AcDbHatch
 10
0.0
 20
0.0
 30
0.0
210
0.0
220
0.0
230
1.0
  2
SOLID
 70
       1
 71
       1
 91
        1
 92
        1
 93
        6
 72
       1
 10
31.399999999999999
 20
3.4839799999999999
 11
32.899999999999999
 21
2.61795
 72
       1
 10
32.899999999999999
 20
2.61795
 11
34.299999999999997
 21
3.42624
 72
       1
 10
34.299999999999997
 20
3.42624
 11
34.299999999999997
 21
5.2737600000000002
 72
       1
 10
34.299999999999997
 20
5.2737600000000002
 11
32.899999999999999
 21
6.0820499999999997
 72
       1
 10
32.899999999999999
 20
6.0820499999999997
 11
31.399999999999999
 21
5.2160299999999999
 72
       1
 10
31.399999999999999
 20
5.2160299999999999
 11
31.399999999999999
 21
3.4839799999999999
 97
        0
 75
       0
 76
       2
 98
        1
 10
0.0
 20
0.0
  0
POLYLINE
  5
17C
100
AcDbEntity
  8
Solder_Pad_1_Top
100
AcDb2dPolyline
 66
       1
 10
0.0
 20
0.0
 30
0.0
 70
       1
  0
VERTEX
  5
17D
100
AcDbEntity
  8
Solder_Pad_1_Top
100
AcDbVertex
100
AcDb2dVertex
 10
34.3
 20
3.42624
  0
VERTEX
  5
17E
100
AcDbEntity
  8
Solder_Pad_1_Top
100
AcDbVertex
100
AcDb2dVertex
 10
34.3
 20
3.42624
  0
VERTEX
  5
17F
100
AcDbEntity
  8
Solder_Pad_1_Top
100
AcDbVertex
100
AcDb2dVertex
 10
32.9
 20
2.61795
  0
VERTEX
  5
180
100
AcDbEntity
  8
Solder_Pad_1_Top
100
AcDbVertex
100
AcDb2dVertex
 10
31.4
 20
3.48398
  0
VERTEX
  5
181
100
AcDbEntity
  8
Solder_Pad_1_Top
100
AcDbVertex
100
AcDb2dVertex
 10
31.4
 20
5.21603
  0
VERTEX
  5
182
100
AcDbEntity
  8
Solder_Pad_1_Top
100
AcDbVertex
100
AcDb2dVertex
 10
32.9
 20
6.08205
  0
VERTEX
  5
183
100
AcDbEntity
  8
Solder_Pad_1_Top
100
AcDbVertex
100
AcDb2dVertex
 10
34.3
 20
5.27376
  0
VERTEX
  5
184
100
AcDbEntity
  8
Solder_Pad_1_Top
100
AcDbVertex
100
AcDb2dVertex
 10
34.3
 20
3.42624
  0
SEQEND
  5
185
100
AcDbEntity
  8
Solder_Pad_1_Top
  0
HATCH
  5
186
100
AcDbEntity
  8
Solder_Pad_1_Top
100
AcDbHatch
 10
0.0
 20
0.0
 30
0.0
210
0.0
220
0.0
230
1.0
  2
SOLID
 70
       1
 71
       1
 91
        1
 92
        1
 93
        4
 72
       1
 10
0.0
 20
17.87002
 11
1.1499999999999999
 21
18.53398
 72
       1
 10
1.1499999999999999
 20
18.53398
 11
1.1499999999999999
 21
20.266030000000001
 72
       1
 10
1.1499999999999999
 20
20.266030000000001
 11
0.0
 21
20.92998
 72
       1
 10
0.0
 20
20.92998
 11
0.0
 21
17.87002
 97
        0
 75
       0
 76
       2
 98
        1
 10
0.0
 20
0.0
  0
POLYLINE
  5
187
100
AcDbEntity
  8
Solder_Pad_1_Top
100
AcDb2dPolyline
 66
       1
 10
0.0
 20
0.0
 30
0.0
 70
       1
  0
VERTEX
  5
188
100
AcDbEntity
  8
Solder_Pad_1_Top
100
AcDbVertex
100
AcDb2dVertex
 10
0.0
 20
17.87002
  0
VERTEX
  5
189
100
AcDbEntity
  8
Solder_Pad_1_Top
100
AcDbVertex
100
AcDb2dVertex
 10
0.0
 20
17.87002
  0
VERTEX
  5
18A
100
AcDbEntity
  8
Solder_Pad_1_Top
100
AcDbVertex
100
AcDb2dVertex
 10
1.15
 20
18.53398
  0
VERTEX
  5
18B
100
AcDbEntity
  8
Solder_Pad_1_Top
100
AcDbVertex
100
AcDb2dVertex
 10
1.15
 20
20.26603
  0
VERTEX
  5
18C
100
AcDbEntity
  8
Solder_Pad_1_Top
100
AcDbVertex
100
AcDb2dVertex
 10
0.0
 20
20.92998
  0
VERTEX
  5
18D
100
AcDbEntity
  8
Solder_Pad_1_Top
100
AcDbVertex
100
AcDb2dVertex
 10
0.0
 20
17.87002
  0
SEQEND
  5
18E
100
AcDbEntity
  8
Solder_Pad_1_Top
  0
HATCH
  5
18F
100
AcDbEntity
  8
Solder_Pad_1_Top
100
AcDbHatch
 10
0.0
 20
0.0
 30
0.0
210
0.0
220
0.0
230
1.0
  2
SOLID
 70
       1
 71
       1
 91
        1
 92
        1
 93
        6
 72
       1
 10
0.0
 20
21.42624
 11
1.3999999999999999
 21
20.61795
 72
       1
 10
1.3999999999999999
 20
20.61795
 11
2.8999999999999999
 21
21.483979999999999
 72
       1
 10
2.8999999999999999
 20
21.483979999999999
 11
2.8999999999999999
 21
23.21603
 72
       1
 10
2.8999999999999999
 20
23.21603
 11
1.3999999999999999
 21
24.082049999999999
 72
       1
 10
1.3999999999999999
 20
24.082049999999999
 11
0.0
 21
23.273759999999999
 72
       1
 10
0.0
 20
23.273759999999999
 11
0.0
 21
21.42624
 97
        0
 75
       0
 76
       2
 98
        1
 10
0.0
 20
0.0
  0
POLYLINE
  5
190
100
AcDbEntity
  8
Solder_Pad_1_Top
100
AcDb2dPolyline
 66
       1
 10
0.0
 20
0.0
 30
0.0
 70
       1
  0
VERTEX
  5
191
100
AcDbEntity
  8
Solder_Pad_1_Top
100
AcDbVertex
100
AcDb2dVertex
 10
0.0
 20
21.42624
  0
VERTEX
  5
192
100
AcDbEntity
  8
Solder_Pad_1_Top
100
AcDbVertex
100
AcDb2dVertex
 10
0.0
 20
21.42624
  0
VERTEX
  5
193
100
AcDbEntity
  8
Solder_Pad_1_Top
100
AcDbVertex
100
AcDb2dVertex
 10
1.4
 20
20.61795
  0
VERTEX
  5
194
100
AcDbEntity
  8
Solder_Pad_1_Top
100
AcDbVertex
100
AcDb2dVertex
 10
2.9
 20
21.48398
  0
VERTEX
  5
195
100
AcDbEntity
  8
Solder_Pad_1_Top
100
AcDbVertex
100
AcDb2dVertex
 10
2.9
 20
23.21603
  0
VERTEX
  5
196
100
AcDbEntity
  8
Solder_Pad_1_Top
100
AcDbVertex
100
AcDb2dVertex
 10
1.4
 20
24.08205
  0
VERTEX
  5
197
100
AcDbEntity
  8
Solder_Pad_1_Top
100
AcDbVertex
100
AcDb2dVertex
 10
0.0
 20
23.27376
  0
VERTEX
  5
198
100
AcDbEntity
  8
Solder_Pad_1_Top
100
AcDbVertex
100
AcDb2dVertex
 10
0.0
 20
21.42624
  0
SEQEND
  5
199
100
AcDbEntity
  8
Solder_Pad_1_Top
  0
HATCH
  5
19A
100
AcDbEntity
  8
Solder_Pad_1_Top
100
AcDbHatch
 10
0.0
 20
0.0
 30
0.0
210
0.0
220
0.0
230
1.0
  2
SOLID
 70
       1
 71
       1
 91
        1
 92
        1
 93
        5
 72
       1
 10
33.149999999999999
 20
0.48398
 11
33.98827
 21
0.0
 72
       1
 10
33.98827
 20
0.0
 11
34.299999999999997
 21
0.0
 72
       1
 10
34.299999999999997
 20
0.0
 11
34.299999999999997
 21
2.8799800000000002
 72
       1
 10
34.299999999999997
 20
2.8799800000000002
 11
33.149999999999999
 21
2.2160299999999999
 72
       1
 10
33.149999999999999
 20
2.2160299999999999
 11
33.149999999999999
 21
0.48398
 97
        0
 75
       0
 76
       2
 98
        1
 10
0.0
 20
0.0
  0
POLYLINE
  5
19B
100
AcDbEntity
  8
Solder_Pad_1_Top
100
AcDb2dPolyline
 66
       1
 10
0.0
 20
0.0
 30
0.0
 70
       1
  0
VERTEX
  5
19C
100
AcDbEntity
  8
Solder_Pad_1_Top
100
AcDbVertex
100
AcDb2dVertex
 10
33.98827
 20
0.0
  0
VERTEX
  5
19D
100
AcDbEntity
  8
Solder_Pad_1_Top
100
AcDbVertex
100
AcDb2dVertex
 10
33.98827
 20
0.0
  0
VERTEX
  5
19E
100
AcDbEntity
  8
Solder_Pad_1_Top
100
AcDbVertex
100
AcDb2dVertex
 10
34.3
 20
0.0
  0
VERTEX
  5
19F
100
AcDbEntity
  8
Solder_Pad_1_Top
100
AcDbVertex
100
AcDb2dVertex
 10
34.3
 20
2.87998
  0
VERTEX
  5
1A0
100
AcDbEntity
  8
Solder_Pad_1_Top
100
AcDbVertex
100
AcDb2dVertex
 10
33.15
 20
2.21603
  0
VERTEX
  5
1A1
100
AcDbEntity
  8
Solder_Pad_1_Top
100
AcDbVertex
100
AcDb2dVertex
 10
33.15
 20
0.48398
  0
VERTEX
  5
1A2
100
AcDbEntity
  8
Solder_Pad_1_Top
100
AcDbVertex
100
AcDb2dVertex
 10
33.98827
 20
0.0
  0
SEQEND
  5
1A3
100
AcDbEntity
  8
Solder_Pad_1_Top
  0
HATCH
  5
1A4
100
AcDbEntity
  8
Solder_Pad_1_Top
100
AcDbHatch
 10
0.0
 20
0.0
 30
0.0
210
0.0
220
0.0
230
1.0
  2
SOLID
 70
       1
 71
       1
 91
        1
 92
        1
 93
        6
 72
       1
 10
26.149999999999999
 20
18.483979999999999
 11
27.649999999999999
 21
17.61795
 72
       1
 10
27.649999999999999
 20
17.61795
 11
29.149999999999999
 21
18.483979999999999
 72
       1
 10
29.149999999999999
 20
18.483979999999999
 11
29.149999999999999
 21
20.21603
 72
       1
 10
29.149999999999999
 20
20.21603
 11
27.649999999999999
 21
21.082049999999999
 72
       1
 10
27.649999999999999
 20
21.082049999999999
 11
26.149999999999999
 21
20.21603
 72
       1
 10
26.149999999999999
 20
20.21603
 11
26.149999999999999
 21
18.483979999999999
 97
        0
 75
       0
 76
       2
 98
        1
 10
0.0
 20
0.0
  0
POLYLINE
  5
1A5
100
AcDbEntity
  8
Solder_Pad_1_Top
100
AcDb2dPolyline
 66
       1
 10
0.0
 20
0.0
 30
0.0
 70
       1
  0
VERTEX
  5
1A6
100
AcDbEntity
  8
Solder_Pad_1_Top
100
AcDbVertex
100
AcDb2dVertex
 10
26.15
 20
20.21603
  0
VERTEX
  5
1A7
100
AcDbEntity
  8
Solder_Pad_1_Top
100
AcDbVertex
100
AcDb2dVertex
 10
26.15
 20
20.21603
  0
VERTEX
  5
1A8
100
AcDbEntity
  8
Solder_Pad_1_Top
100
AcDbVertex
100
AcDb2dVertex
 10
27.65
 20
21.08205
  0
VERTEX
  5
1A9
100
AcDbEntity
  8
Solder_Pad_1_Top
100
AcDbVertex
100
AcDb2dVertex
 10
29.15
 20
20.21603
  0
VERTEX
  5
1AA
100
AcDbEntity
  8
Solder_Pad_1_Top
100
AcDbVertex
100
AcDb2dVertex
 10
29.15
 20
18.48398
  0
VERTEX
  5
1AB
100
AcDbEntity
  8
Solder_Pad_1_Top
100
AcDbVertex
100
AcDb2dVertex
 10
27.65
 20
17.61795
  0
VERTEX
  5
1AC
100
AcDbEntity
  8
Solder_Pad_1_Top
100
AcDbVertex
100
AcDb2dVertex
 10
26.15
 20
18.48398
  0
VERTEX
  5
1AD
100
AcDbEntity
  8
Solder_Pad_1_Top
100
AcDbVertex
100
AcDb2dVertex
 10
26.15
 20
20.21603
  0
SEQEND
  5
1AE
100
AcDbEntity
  8
Solder_Pad_1_Top
  0
HATCH
  5
1AF
100
AcDbEntity
  8
Solder_Pad_1_Top
100
AcDbHatch
 10
0.0
 20
0.0
 30
0.0
210
0.0
220
0.0
230
1.0
  2
SOLID
 70
       1
 71
       1
 91
        1
 92
        1
 93
        6
 72
       1
 10
29.649999999999999
 20
18.483979999999999
 11
31.149999999999999
 21
17.61795
 72
       1
 10
31.149999999999999
 20
17.61795
 11
32.649999999999999
 21
18.483979999999999
 72
       1
 10
32.649999999999999
 20
18.483979999999999
 11
32.649999999999999
 21
20.21603
 72
       1
 10
32.649999999999999
 20
20.21603
 11
31.149999999999999
 21
21.082049999999999
 72
       1
 10
31.149999999999999
 20
21.082049999999999
 11
29.649999999999999
 21
20.21603
 72
       1
 10
29.649999999999999
 20
20.21603
 11
29.649999999999999
 21
18.483979999999999
 97
        0
 75
       0
 76
       2
 98
        1
 10
0.0
 20
0.0
  0
POLYLINE
  5
1B0
100
AcDbEntity
  8
Solder_Pad_1_Top
100
AcDb2dPolyline
 66
       1
 10
0.0
 20
0.0
 30
0.0
 70
       1
  0
VERTEX
  5
1B1
100
AcDbEntity
  8
Solder_Pad_1_Top
100
AcDbVertex
100
AcDb2dVertex
 10
29.65
 20
20.21603
  0
VERTEX
  5
1B2
100
AcDbEntity
  8
Solder_Pad_1_Top
100
AcDbVertex
100
AcDb2dVertex
 10
29.65
 20
20.21603
  0
VERTEX
  5
1B3
100
AcDbEntity
  8
Solder_Pad_1_Top
100
AcDbVertex
100
AcDb2dVertex
 10
31.15
 20
21.08205
  0
VERTEX
  5
1B4
100
AcDbEntity
  8
Solder_Pad_1_Top
100
AcDbVertex
100
AcDb2dVertex
 10
32.65
 20
20.21603
  0
VERTEX
  5
1B5
100
AcDbEntity
  8
Solder_Pad_1_Top
100
AcDbVertex
100
AcDb2dVertex
 10
32.65
 20
18.48398
  0
VERTEX
  5
1B6
100
AcDbEntity
  8
Solder_Pad_1_Top
100
AcDbVertex
100
AcDb2dVertex
 10
31.15
 20
17.61795
  0
VERTEX
  5
1B7
100
AcDbEntity
  8
Solder_Pad_1_Top
100
AcDbVertex
100
AcDb2dVertex
 10
29.65
 20
18.48398
  0
VERTEX
  5
1B8
100
AcDbEntity
  8
Solder_Pad_1_Top
100
AcDbVertex
100
AcDb2dVertex
 10
29.65
 20
20.21603
  0
SEQEND
  5
1B9
100
AcDbEntity
  8
Solder_Pad_1_Top
  0
HATCH
  5
1BA
100
AcDbEntity
  8
Solder_Pad_1_Top
100
AcDbHatch
 10
0.0
 20
0.0
 30
0.0
210
0.0
220
0.0
230
1.0
  2
SOLID
 70
       1
 71
       1
 91
        1
 92
        1
 93
        6
 72
       1
 10
27.899999999999999
 20
3.4839799999999999
 11
29.399999999999999
 21
2.61795
 72
       1
 10
29.399999999999999
 20
2.61795
 11
30.899999999999999
 21
3.4839799999999999
 72
       1
 10
30.899999999999999
 20
3.4839799999999999
 11
30.899999999999999
 21
5.2160299999999999
 72
       1
 10
30.899999999999999
 20
5.2160299999999999
 11
29.399999999999999
 21
6.0820499999999997
 72
       1
 10
29.399999999999999
 20
6.0820499999999997
 11
27.899999999999999
 21
5.2160299999999999
 72
       1
 10
27.899999999999999
 20
5.2160299999999999
 11
27.899999999999999
 21
3.4839799999999999
 97
        0
 75
       0
 76
       2
 98
        1
 10
0.0
 20
0.0
  0
POLYLINE
  5
1BB
100
AcDbEntity
  8
Solder_Pad_1_Top
100
AcDb2dPolyline
 66
       1
 10
0.0
 20
0.0
 30
0.0
 70
       1
  0
VERTEX
  5
1BC
100
AcDbEntity
  8
Solder_Pad_1_Top
100
AcDbVertex
100
AcDb2dVertex
 10
27.9
 20
5.21603
  0
VERTEX
  5
1BD
100
AcDbEntity
  8
Solder_Pad_1_Top
100
AcDbVertex
100
AcDb2dVertex
 10
27.9
 20
5.21603
  0
VERTEX
  5
1BE
100
AcDbEntity
  8
Solder_Pad_1_Top
100
AcDbVertex
100
AcDb2dVertex
 10
29.4
 20
6.08205
  0
VERTEX
  5
1BF
100
AcDbEntity
  8
Solder_Pad_1_Top
100
AcDbVertex
100
AcDb2dVertex
 10
30.9
 20
5.21603
  0
VERTEX
  5
1C0
100
AcDbEntity
  8
Solder_Pad_1_Top
100
AcDbVertex
100
AcDb2dVertex
 10
30.9
 20
3.48398
  0
VERTEX
  5
1C1
100
AcDbEntity
  8
Solder_Pad_1_Top
100
AcDbVertex
100
AcDb2dVertex
 10
29.4
 20
2.61795
  0
VERTEX
  5
1C2
100
AcDbEntity
  8
Solder_Pad_1_Top
100
AcDbVertex
100
AcDb2dVertex
 10
27.9
 20
3.48398
  0
VERTEX
  5
1C3
100
AcDbEntity
  8
Solder_Pad_1_Top
100
AcDbVertex
100
AcDb2dVertex
 10
27.9
 20
5.21603
  0
SEQEND
  5
1C4
100
AcDbEntity
  8
Solder_Pad_1_Top
  0
HATCH
  5
1C5
100
AcDbEntity
  8
Solder_Pad_1_Top
100
AcDbHatch
 10
0.0
 20
0.0
 30
0.0
210
0.0
220
0.0
230
1.0
  2
SOLID
 70
       1
 71
       1
 91
        1
 92
        1
 93
        6
 72
       1
 10
27.899999999999999
 20
9.4839800000000007
 11
29.399999999999999
 21
8.6179500000000004
 72
       1
 10
29.399999999999999
 20
8.6179500000000004
 11
30.899999999999999
 21
9.4839800000000007
 72
       1
 10
30.899999999999999
 20
9.4839800000000007
 11
30.899999999999999
 21
11.21603
 72
       1
 10
30.899999999999999
 20
11.21603
 11
29.399999999999999
 21
12.082050000000001
 72
       1
 10
29.399999999999999
 20
12.082050000000001
 11
27.899999999999999
 21
11.21603
 72
       1
 10
27.899999999999999
 20
11.21603
 11
27.899999999999999
 21
9.4839800000000007
 97
        0
 75
       0
 76
       2
 98
        1
 10
0.0
 20
0.0
  0
POLYLINE
  5
1C6
100
AcDbEntity
  8
Solder_Pad_1_Top
100
AcDb2dPolyline
 66
       1
 10
0.0
 20
0.0
 30
0.0
 70
       1
  0
VERTEX
  5
1C7
100
AcDbEntity
  8
Solder_Pad_1_Top
100
AcDbVertex
100
AcDb2dVertex
 10
27.9
 20
11.21603
  0
VERTEX
  5
1C8
100
AcDbEntity
  8
Solder_Pad_1_Top
100
AcDbVertex
100
AcDb2dVertex
 10
27.9
 20
11.21603
  0
VERTEX
  5
1C9
100
AcDbEntity
  8
Solder_Pad_1_Top
100
AcDbVertex
100
AcDb2dVertex
 10
29.4
 20
12.08205
  0
VERTEX
  5
1CA
100
AcDbEntity
  8
Solder_Pad_1_Top
100
AcDbVertex
100
AcDb2dVertex
 10
30.9
 20
11.21603
  0
VERTEX
  5
1CB
100
AcDbEntity
  8
Solder_Pad_1_Top
100
AcDbVertex
100
AcDb2dVertex
 10
30.9
 20
9.48398
  0
VERTEX
  5
1CC
100
AcDbEntity
  8
Solder_Pad_1_Top
100
AcDbVertex
100
AcDb2dVertex
 10
29.4
 20
8.61795
  0
VERTEX
  5
1CD
100
AcDbEntity
  8
Solder_Pad_1_Top
100
AcDbVertex
100
AcDb2dVertex
 10
27.9
 20
9.48398
  0
VERTEX
  5
1CE
100
AcDbEntity
  8
Solder_Pad_1_Top
100
AcDbVertex
100
AcDb2dVertex
 10
27.9
 20
11.21603
  0
SEQEND
  5
1CF
100
AcDbEntity
  8
Solder_Pad_1_Top
  0
HATCH
  5
1D0
100
AcDbEntity
  8
Solder_Pad_1_Top
100
AcDbHatch
 10
0.0
 20
0.0
 30
0.0
210
0.0
220
0.0
230
1.0
  2
SOLID
 70
       1
 71
       1
 91
        1
 92
        1
 93
        6
 72
       1
 10
29.649999999999999
 20
12.483980000000001
 11
31.149999999999999
 21
11.61795
 72
       1
 10
31.149999999999999
 20
11.61795
 11
32.649999999999999
 21
12.483980000000001
 72
       1
 10
32.649999999999999
 20
12.483980000000001
 11
32.649999999999999
 21
14.21603
 72
       1
 10
32.649999999999999
 20
14.21603
 11
31.149999999999999
 21
15.082050000000001
 72
       1
 10
31.149999999999999
 20
15.082050000000001
 11
29.649999999999999
 21
14.21603
 72
       1
 10
29.649999999999999
 20
14.21603
 11
29.649999999999999
 21
12.483980000000001
 97
        0
 75
       0
 76
       2
 98
        1
 10
0.0
 20
0.0
  0
POLYLINE
  5
1D1
100
AcDbEntity
  8
Solder_Pad_1_Top
100
AcDb2dPolyline
 66
       1
 10
0.0
 20
0.0
 30
0.0
 70
       1
  0
VERTEX
  5
1D2
100
AcDbEntity
  8
Solder_Pad_1_Top
100
AcDbVertex
100
AcDb2dVertex
 10
29.65
 20
14.21603
  0
VERTEX
  5
1D3
100
AcDbEntity
  8
Solder_Pad_1_Top
100
AcDbVertex
100
AcDb2dVertex
 10
29.65
 20
14.21603
  0
VERTEX
  5
1D4
100
AcDbEntity
  8
Solder_Pad_1_Top
100
AcDbVertex
100
AcDb2dVertex
 10
31.15
 20
15.08205
  0
VERTEX
  5
1D5
100
AcDbEntity
  8
Solder_Pad_1_Top
100
AcDbVertex
100
AcDb2dVertex
 10
32.65
 20
14.21603
  0
VERTEX
  5
1D6
100
AcDbEntity
  8
Solder_Pad_1_Top
100
AcDbVertex
100
AcDb2dVertex
 10
32.65
 20
12.48398
  0
VERTEX
  5
1D7
100
AcDbEntity
  8
Solder_Pad_1_Top
100
AcDbVertex
100
AcDb2dVertex
 10
31.15
 20
11.61795
  0
VERTEX
  5
1D8
100
AcDbEntity
  8
Solder_Pad_1_Top
100
AcDbVertex
100
AcDb2dVertex
 10
29.65
 20
12.48398
  0
VERTEX
  5
1D9
100
AcDbEntity
  8
Solder_Pad_1_Top
100
AcDbVertex
100
AcDb2dVertex
 10
29.65
 20
14.21603
  0
SEQEND
  5
1DA
100
AcDbEntity
  8
Solder_Pad_1_Top
  0
HATCH
  5
1DB
100
AcDbEntity
  8
Solder_Pad_1_Top
100
AcDbHatch
 10
0.0
 20
0.0
 30
0.0
210
0.0
220
0.0
230
1.0
  2
SOLID
 70
       1
 71
       1
 91
        1
 92
        1
 93
        6
 72
       1
 10
27.899999999999999
 20
15.483980000000001
 11
29.399999999999999
 21
14.61795
 72
       1
 10
29.399999999999999
 20
14.61795
 11
30.899999999999999
 21
15.483980000000001
 72
       1
 10
30.899999999999999
 20
15.483980000000001
 11
30.899999999999999
 21
17.21603
 72
       1
 10
30.899999999999999
 20
17.21603
 11
29.399999999999999
 21
18.082049999999999
 72
       1
 10
29.399999999999999
 20
18.082049999999999
 11
27.899999999999999
 21
17.21603
 72
       1
 10
27.899999999999999
 20
17.21603
 11
27.899999999999999
 21
15.483980000000001
 97
        0
 75
       0
 76
       2
 98
        1
 10
0.0
 20
0.0
  0
POLYLINE
  5
1DC
100
AcDbEntity
  8
Solder_Pad_1_Top
100
AcDb2dPolyline
 66
       1
 10
0.0
 20
0.0
 30
0.0
 70
       1
  0
VERTEX
  5
1DD
100
AcDbEntity
  8
Solder_Pad_1_Top
100
AcDbVertex
100
AcDb2dVertex
 10
27.9
 20
17.21603
  0
VERTEX
  5
1DE
100
AcDbEntity
  8
Solder_Pad_1_Top
100
AcDbVertex
100
AcDb2dVertex
 10
27.9
 20
17.21603
  0
VERTEX
  5
1DF
100
AcDbEntity
  8
Solder_Pad_1_Top
100
AcDbVertex
100
AcDb2dVertex
 10
29.4
 20
18.08205
  0
VERTEX
  5
1E0
100
AcDbEntity
  8
Solder_Pad_1_Top
100
AcDbVertex
100
AcDb2dVertex
 10
30.9
 20
17.21603
  0
VERTEX
  5
1E1
100
AcDbEntity
  8
Solder_Pad_1_Top
100
AcDbVertex
100
AcDb2dVertex
 10
30.9
 20
15.48398
  0
VERTEX
  5
1E2
100
AcDbEntity
  8
Solder_Pad_1_Top
100
AcDbVertex
100
AcDb2dVertex
 10
29.4
 20
14.61795
  0
VERTEX
  5
1E3
100
AcDbEntity
  8
Solder_Pad_1_Top
100
AcDbVertex
100
AcDb2dVertex
 10
27.9
 20
15.48398
  0
VERTEX
  5
1E4
100
AcDbEntity
  8
Solder_Pad_1_Top
100
AcDbVertex
100
AcDb2dVertex
 10
27.9
 20
17.21603
  0
SEQEND
  5
1E5
100
AcDbEntity
  8
Solder_Pad_1_Top
  0
HATCH
  5
1E6
100
AcDbEntity
  8
Solder_Pad_1_Top
100
AcDbHatch
 10
0.0
 20
0.0
 30
0.0
210
0.0
220
0.0
230
1.0
  2
SOLID
 70
       1
 71
       1
 91
        1
 92
        1
 93
        6
 72
       1
 10
3.3999999999999999
 20
3.4839799999999999
 11
4.9000000000000004
 21
2.61795
 72
       1
 10
4.9000000000000004
 20
2.61795
 11
6.4000000000000004
 21
3.4839799999999999
 72
       1
 10
6.4000000000000004
 20
3.4839799999999999
 11
6.4000000000000004
 21
5.2160299999999999
 72
       1
 10
6.4000000000000004
 20
5.2160299999999999
 11
4.9000000000000004
 21
6.0820499999999997
 72
       1
 10
4.9000000000000004
 20
6.0820499999999997
 11
3.3999999999999999
 21
5.2160299999999999
 72
       1
 10
3.3999999999999999
 20
5.2160299999999999
 11
3.3999999999999999
 21
3.4839799999999999
 97
        0
 75
       0
 76
       2
 98
        1
 10
0.0
 20
0.0
  0
POLYLINE
  5
1E7
100
AcDbEntity
  8
Solder_Pad_1_Top
100
AcDb2dPolyline
 66
       1
 10
0.0
 20
0.0
 30
0.0
 70
       1
  0
VERTEX
  5
1E8
100
AcDbEntity
  8
Solder_Pad_1_Top
100
AcDbVertex
100
AcDb2dVertex
 10
3.4
 20
5.21603
  0
VERTEX
  5
1E9
100
AcDbEntity
  8
Solder_Pad_1_Top
100
AcDbVertex
100
AcDb2dVertex
 10
3.4
 20
5.21603
  0
VERTEX
  5
1EA
100
AcDbEntity
  8
Solder_Pad_1_Top
100
AcDbVertex
100
AcDb2dVertex
 10
4.9
 20
6.08205
  0
VERTEX
  5
1EB
100
AcDbEntity
  8
Solder_Pad_1_Top
100
AcDbVertex
100
AcDb2dVertex
 10
6.4
 20
5.21603
  0
VERTEX
  5
1EC
100
AcDbEntity
  8
Solder_Pad_1_Top
100
AcDbVertex
100
AcDb2dVertex
 10
6.4
 20
3.48398
  0
VERTEX
  5
1ED
100
AcDbEntity
  8
Solder_Pad_1_Top
100
AcDbVertex
100
AcDb2dVertex
 10
4.9
 20
2.61795
  0
VERTEX
  5
1EE
100
AcDbEntity
  8
Solder_Pad_1_Top
100
AcDbVertex
100
AcDb2dVertex
 10
3.4
 20
3.48398
  0
VERTEX
  5
1EF
100
AcDbEntity
  8
Solder_Pad_1_Top
100
AcDbVertex
100
AcDb2dVertex
 10
3.4
 20
5.21603
  0
SEQEND
  5
1F0
100
AcDbEntity
  8
Solder_Pad_1_Top
  0
HATCH
  5
1F1
100
AcDbEntity
  8
Solder_Pad_1_Top
100
AcDbHatch
 10
0.0
 20
0.0
 30
0.0
210
0.0
220
0.0
230
1.0
  2
SOLID
 70
       1
 71
       1
 91
        1
 92
        1
 93
        6
 72
       1
 10
1.6499999999999999
 20
6.4839799999999999
 11
3.1499999999999999
 21
5.6179500000000004
 72
       1
 10
3.1499999999999999
 20
5.6179500000000004
 11
4.6500000000000004
 21
6.4839799999999999
 72
       1
 10
4.6500000000000004
 20
6.4839799999999999
 11
4.6500000000000004
 21
8.2160299999999999
 72
       1
 10
4.6500000000000004
 20
8.2160299999999999
 11
3.1499999999999999
 21
9.0820500000000006
 72
       1
 10
3.1499999999999999
 20
9.0820500000000006
 11
1.6499999999999999
 21
8.2160299999999999
 72
       1
 10
1.6499999999999999
 20
8.2160299999999999
 11
1.6499999999999999
 21
6.4839799999999999
 97
        0
 75
       0
 76
       2
 98
        1
 10
0.0
 20
0.0
  0
POLYLINE
  5
1F2
100
AcDbEntity
  8
Solder_Pad_1_Top
100
AcDb2dPolyline
 66
       1
 10
0.0
 20
0.0
 30
0.0
 70
       1
  0
VERTEX
  5
1F3
100
AcDbEntity
  8
Solder_Pad_1_Top
100
AcDbVertex
100
AcDb2dVertex
 10
1.65
 20
8.21603
  0
VERTEX
  5
1F4
100
AcDbEntity
  8
Solder_Pad_1_Top
100
AcDbVertex
100
AcDb2dVertex
 10
1.65
 20
8.21603
  0
VERTEX
  5
1F5
100
AcDbEntity
  8
Solder_Pad_1_Top
100
AcDbVertex
100
AcDb2dVertex
 10
3.15
 20
9.08205
  0
VERTEX
  5
1F6
100
AcDbEntity
  8
Solder_Pad_1_Top
100
AcDbVertex
100
AcDb2dVertex
 10
4.65
 20
8.21603
  0
VERTEX
  5
1F7
100
AcDbEntity
  8
Solder_Pad_1_Top
100
AcDbVertex
100
AcDb2dVertex
 10
4.65
 20
6.48398
  0
VERTEX
  5
1F8
100
AcDbEntity
  8
Solder_Pad_1_Top
100
AcDbVertex
100
AcDb2dVertex
 10
3.15
 20
5.61795
  0
VERTEX
  5
1F9
100
AcDbEntity
  8
Solder_Pad_1_Top
100
AcDbVertex
100
AcDb2dVertex
 10
1.65
 20
6.48398
  0
VERTEX
  5
1FA
100
AcDbEntity
  8
Solder_Pad_1_Top
100
AcDbVertex
100
AcDb2dVertex
 10
1.65
 20
8.21603
  0
SEQEND
  5
1FB
100
AcDbEntity
  8
Solder_Pad_1_Top
  0
HATCH
  5
1FC
100
AcDbEntity
  8
Solder_Pad_1_Top
100
AcDbHatch
 10
0.0
 20
0.0
 30
0.0
210
0.0
220
0.0
230
1.0
  2
SOLID
 70
       1
 71
       1
 91
        1
 92
        1
 93
        6
 72
       1
 10
1.6499999999999999
 20
18.483979999999999
 11
3.1499999999999999
 21
17.61795
 72
       1
 10
3.1499999999999999
 20
17.61795
 11
4.6500000000000004
 21
18.483979999999999
 72
       1
 10
4.6500000000000004
 20
18.483979999999999
 11
4.6500000000000004
 21
20.21603
 72
       1
 10
4.6500000000000004
 20
20.21603
 11
3.1499999999999999
 21
21.082049999999999
 72
       1
 10
3.1499999999999999
 20
21.082049999999999
 11
1.6499999999999999
 21
20.21603
 72
       1
 10
1.6499999999999999
 20
20.21603
 11
1.6499999999999999
 21
18.483979999999999
 97
        0
 75
       0
 76
       2
 98
        1
 10
0.0
 20
0.0
  0
POLYLINE
  5
1FD
100
AcDbEntity
  8
Solder_Pad_1_Top
100
AcDb2dPolyline
 66
       1
 10
0.0
 20
0.0
 30
0.0
 70
       1
  0
VERTEX
  5
1FE
100
AcDbEntity
  8
Solder_Pad_1_Top
100
AcDbVertex
100
AcDb2dVertex
 10
1.65
 20
20.21603
  0
VERTEX
  5
1FF
100
AcDbEntity
  8
Solder_Pad_1_Top
100
AcDbVertex
100
AcDb2dVertex
 10
1.65
 20
20.21603
  0
VERTEX
  5
200
100
AcDbEntity
  8
Solder_Pad_1_Top
100
AcDbVertex
100
AcDb2dVertex
 10
3.15
 20
21.08205
  0
VERTEX
  5
201
100
AcDbEntity
  8
Solder_Pad_1_Top
100
AcDbVertex
100
AcDb2dVertex
 10
4.65
 20
20.21603
  0
VERTEX
  5
202
100
AcDbEntity
  8
Solder_Pad_1_Top
100
AcDbVertex
100
AcDb2dVertex
 10
4.65
 20
18.48398
  0
VERTEX
  5
203
100
AcDbEntity
  8
Solder_Pad_1_Top
100
AcDbVertex
100
AcDb2dVertex
 10
3.15
 20
17.61795
  0
VERTEX
  5
204
100
AcDbEntity
  8
Solder_Pad_1_Top
100
AcDbVertex
100
AcDb2dVertex
 10
1.65
 20
18.48398
  0
VERTEX
  5
205
100
AcDbEntity
  8
Solder_Pad_1_Top
100
AcDbVertex
100
AcDb2dVertex
 10
1.65
 20
20.21603
  0
SEQEND
  5
206
100
AcDbEntity
  8
Solder_Pad_1_Top
  0
HATCH
  5
207
100
AcDbEntity
  8
Solder_Pad_1_Top
100
AcDbHatch
 10
0.0
 20
0.0
 30
0.0
210
0.0
220
0.0
230
1.0
  2
SOLID
 70
       1
 71
       1
 91
        1
 92
        1
 93
        6
 72
       1
 10
19.149999999999999
 20
12.483980000000001
 11
20.649999999999999
 21
11.61795
 72
       1
 10
20.649999999999999
 20
11.61795
 11
22.149999999999999
 21
12.483980000000001
 72
       1
 10
22.149999999999999
 20
12.483980000000001
 11
22.149999999999999
 21
14.21603
 72
       1
 10
22.149999999999999
 20
14.21603
 11
20.649999999999999
 21
15.082050000000001
 72
       1
 10
20.649999999999999
 20
15.082050000000001
 11
19.149999999999999
 21
14.21603
 72
       1
 10
19.149999999999999
 20
14.21603
 11
19.149999999999999
 21
12.483980000000001
 97
        0
 75
       0
 76
       2
 98
        1
 10
0.0
 20
0.0
  0
POLYLINE
  5
208
100
AcDbEntity
  8
Solder_Pad_1_Top
100
AcDb2dPolyline
 66
       1
 10
0.0
 20
0.0
 30
0.0
 70
       1
  0
VERTEX
  5
209
100
AcDbEntity
  8
Solder_Pad_1_Top
100
AcDbVertex
100
AcDb2dVertex
 10
19.15
 20
14.21603
  0
VERTEX
  5
20A
100
AcDbEntity
  8
Solder_Pad_1_Top
100
AcDbVertex
100
AcDb2dVertex
 10
19.15
 20
14.21603
  0
VERTEX
  5
20B
100
AcDbEntity
  8
Solder_Pad_1_Top
100
AcDbVertex
100
AcDb2dVertex
 10
20.65
 20
15.08205
  0
VERTEX
  5
20C
100
AcDbEntity
  8
Solder_Pad_1_Top
100
AcDbVertex
100
AcDb2dVertex
 10
22.15
 20
14.21603
  0
VERTEX
  5
20D
100
AcDbEntity
  8
Solder_Pad_1_Top
100
AcDbVertex
100
AcDb2dVertex
 10
22.15
 20
12.48398
  0
VERTEX
  5
20E
100
AcDbEntity
  8
Solder_Pad_1_Top
100
AcDbVertex
100
AcDb2dVertex
 10
20.65
 20
11.61795
  0
VERTEX
  5
20F
100
AcDbEntity
  8
Solder_Pad_1_Top
100
AcDbVertex
100
AcDb2dVertex
 10
19.15
 20
12.48398
  0
VERTEX
  5
210
100
AcDbEntity
  8
Solder_Pad_1_Top
100
AcDbVertex
100
AcDb2dVertex
 10
19.15
 20
14.21603
  0
SEQEND
  5
211
100
AcDbEntity
  8
Solder_Pad_1_Top
  0
HATCH
  5
212
100
AcDbEntity
  8
Solder_Pad_1_Top
100
AcDbHatch
 10
0.0
 20
0.0
 30
0.0
210
0.0
220
0.0
230
1.0
  2
SOLID
 70
       1
 71
       1
 91
        1
 92
        1
 93
        6
 72
       1
 10
13.9
 20
3.4839799999999999
 11
15.4
 21
2.61795
 72
       1
 10
15.4
 20
2.61795
 11
16.899999999999999
 21
3.4839799999999999
 72
       1
 10
16.899999999999999
 20
3.4839799999999999
 11
16.899999999999999
 21
5.2160299999999999
 72
       1
 10
16.899999999999999
 20
5.2160299999999999
 11
15.4
 21
6.0820499999999997
 72
       1
 10
15.4
 20
6.0820499999999997
 11
13.9
 21
5.2160299999999999
 72
       1
 10
13.9
 20
5.2160299999999999
 11
13.9
 21
3.4839799999999999
 97
        0
 75
       0
 76
       2
 98
        1
 10
0.0
 20
0.0
  0
POLYLINE
  5
213
100
AcDbEntity
  8
Solder_Pad_1_Top
100
AcDb2dPolyline
 66
       1
 10
0.0
 20
0.0
 30
0.0
 70
       1
  0
VERTEX
  5
214
100
AcDbEntity
  8
Solder_Pad_1_Top
100
AcDbVertex
100
AcDb2dVertex
 10
13.9
 20
5.21603
  0
VERTEX
  5
215
100
AcDbEntity
  8
Solder_Pad_1_Top
100
AcDbVertex
100
AcDb2dVertex
 10
13.9
 20
5.21603
  0
VERTEX
  5
216
100
AcDbEntity
  8
Solder_Pad_1_Top
100
AcDbVertex
100
AcDb2dVertex
 10
15.4
 20
6.08205
  0
VERTEX
  5
217
100
AcDbEntity
  8
Solder_Pad_1_Top
100
AcDbVertex
100
AcDb2dVertex
 10
16.9
 20
5.21603
  0
VERTEX
  5
218
100
AcDbEntity
  8
Solder_Pad_1_Top
100
AcDbVertex
100
AcDb2dVertex
 10
16.9
 20
3.48398
  0
VERTEX
  5
219
100
AcDbEntity
  8
Solder_Pad_1_Top
100
AcDbVertex
100
AcDb2dVertex
 10
15.4
 20
2.61795
  0
VERTEX
  5
21A
100
AcDbEntity
  8
Solder_Pad_1_Top
100
AcDbVertex
100
AcDb2dVertex
 10
13.9
 20
3.48398
  0
VERTEX
  5
21B
100
AcDbEntity
  8
Solder_Pad_1_Top
100
AcDbVertex
100
AcDb2dVertex
 10
13.9
 20
5.21603
  0
SEQEND
  5
21C
100
AcDbEntity
  8
Solder_Pad_1_Top
  0
HATCH
  5
21D
100
AcDbEntity
  8
Solder_Pad_1_Top
100
AcDbHatch
 10
0.0
 20
0.0
 30
0.0
210
0.0
220
0.0
230
1.0
  2
SOLID
 70
       1
 71
       1
 91
        1
 92
        1
 93
        6
 72
       1
 10
26.149999999999999
 20
6.4839799999999999
 11
27.649999999999999
 21
5.6179500000000004
 72
       1
 10
27.649999999999999
 20
5.6179500000000004
 11
29.149999999999999
 21
6.4839799999999999
 72
       1
 10
29.149999999999999
 20
6.4839799999999999
 11
29.149999999999999
 21
8.2160299999999999
 72
       1
 10
29.149999999999999
 20
8.2160299999999999
 11
27.649999999999999
 21
9.0820500000000006
 72
       1
 10
27.649999999999999
 20
9.0820500000000006
 11
26.149999999999999
 21
8.2160299999999999
 72
       1
 10
26.149999999999999
 20
8.2160299999999999
 11
26.149999999999999
 21
6.4839799999999999
 97
        0
 75
       0
 76
       2
 98
        1
 10
0.0
 20
0.0
  0
POLYLINE
  5
21E
100
AcDbEntity
  8
Solder_Pad_1_Top
100
AcDb2dPolyline
 66
       1
 10
0.0
 20
0.0
 30
0.0
 70
       1
  0
VERTEX
  5
21F
100
AcDbEntity
  8
Solder_Pad_1_Top
100
AcDbVertex
100
AcDb2dVertex
 10
26.15
 20
8.21603
  0
VERTEX
  5
220
100
AcDbEntity
  8
Solder_Pad_1_Top
100
AcDbVertex
100
AcDb2dVertex
 10
26.15
 20
8.21603
  0
VERTEX
  5
221
100
AcDbEntity
  8
Solder_Pad_1_Top
100
AcDbVertex
100
AcDb2dVertex
 10
27.65
 20
9.08205
  0
VERTEX
  5
222
100
AcDbEntity
  8
Solder_Pad_1_Top
100
AcDbVertex
100
AcDb2dVertex
 10
29.15
 20
8.21603
  0
VERTEX
  5
223
100
AcDbEntity
  8
Solder_Pad_1_Top
100
AcDbVertex
100
AcDb2dVertex
 10
29.15
 20
6.48398
  0
VERTEX
  5
224
100
AcDbEntity
  8
Solder_Pad_1_Top
100
AcDbVertex
100
AcDb2dVertex
 10
27.65
 20
5.61795
  0
VERTEX
  5
225
100
AcDbEntity
  8
Solder_Pad_1_Top
100
AcDbVertex
100
AcDb2dVertex
 10
26.15
 20
6.48398
  0
VERTEX
  5
226
100
AcDbEntity
  8
Solder_Pad_1_Top
100
AcDbVertex
100
AcDb2dVertex
 10
26.15
 20
8.21603
  0
SEQEND
  5
227
100
AcDbEntity
  8
Solder_Pad_1_Top
  0
HATCH
  5
228
100
AcDbEntity
  8
Solder_Pad_1_Top
100
AcDbHatch
 10
0.0
 20
0.0
 30
0.0
210
0.0
220
0.0
230
1.0
  2
SOLID
 70
       1
 71
       1
 91
        1
 92
        1
 93
        6
 72
       1
 10
19.149999999999999
 20
6.4839799999999999
 11
20.649999999999999
 21
5.6179500000000004
 72
       1
 10
20.649999999999999
 20
5.6179500000000004
 11
22.149999999999999
 21
6.4839799999999999
 72
       1
 10
22.149999999999999
 20
6.4839799999999999
 11
22.149999999999999
 21
8.2160299999999999
 72
       1
 10
22.149999999999999
 20
8.2160299999999999
 11
20.649999999999999
 21
9.0820500000000006
 72
       1
 10
20.649999999999999
 20
9.0820500000000006
 11
19.149999999999999
 21
8.2160299999999999
 72
       1
 10
19.149999999999999
 20
8.2160299999999999
 11
19.149999999999999
 21
6.4839799999999999
 97
        0
 75
       0
 76
       2
 98
        1
 10
0.0
 20
0.0
  0
POLYLINE
  5
229
100
AcDbEntity
  8
Solder_Pad_1_Top
100
AcDb2dPolyline
 66
       1
 10
0.0
 20
0.0
 30
0.0
 70
       1
  0
VERTEX
  5
22A
100
AcDbEntity
  8
Solder_Pad_1_Top
100
AcDbVertex
100
AcDb2dVertex
 10
19.15
 20
8.21603
  0
VERTEX
  5
22B
100
AcDbEntity
  8
Solder_Pad_1_Top
100
AcDbVertex
100
AcDb2dVertex
 10
19.15
 20
8.21603
  0
VERTEX
  5
22C
100
AcDbEntity
  8
Solder_Pad_1_Top
100
AcDbVertex
100
AcDb2dVertex
 10
20.65
 20
9.08205
  0
VERTEX
  5
22D
100
AcDbEntity
  8
Solder_Pad_1_Top
100
AcDbVertex
100
AcDb2dVertex
 10
22.15
 20
8.21603
  0
VERTEX
  5
22E
100
AcDbEntity
  8
Solder_Pad_1_Top
100
AcDbVertex
100
AcDb2dVertex
 10
22.15
 20
6.48398
  0
VERTEX
  5
22F
100
AcDbEntity
  8
Solder_Pad_1_Top
100
AcDbVertex
100
AcDb2dVertex
 10
20.65
 20
5.61795
  0
VERTEX
  5
230
100
AcDbEntity
  8
Solder_Pad_1_Top
100
AcDbVertex
100
AcDb2dVertex
 10
19.15
 20
6.48398
  0
VERTEX
  5
231
100
AcDbEntity
  8
Solder_Pad_1_Top
100
AcDbVertex
100
AcDb2dVertex
 10
19.15
 20
8.21603
  0
SEQEND
  5
232
100
AcDbEntity
  8
Solder_Pad_1_Top
  0
HATCH
  5
233
100
AcDbEntity
  8
Solder_Pad_1_Top
100
AcDbHatch
 10
0.0
 20
0.0
 30
0.0
210
0.0
220
0.0
230
1.0
  2
SOLID
 70
       1
 71
       1
 91
        1
 92
        1
 93
        6
 72
       1
 10
15.65
 20
6.4839799999999999
 11
17.149999999999999
 21
5.6179500000000004
 72
       1
 10
17.149999999999999
 20
5.6179500000000004
 11
18.649999999999999
 21
6.4839799999999999
 72
       1
 10
18.649999999999999
 20
6.4839799999999999
 11
18.649999999999999
 21
8.2160299999999999
 72
       1
 10
18.649999999999999
 20
8.2160299999999999
 11
17.149999999999999
 21
9.0820500000000006
 72
       1
 10
17.149999999999999
 20
9.0820500000000006
 11
15.65
 21
8.2160299999999999
 72
       1
 10
15.65
 20
8.2160299999999999
 11
15.65
 21
6.4839799999999999
 97
        0
 75
       0
 76
       2
 98
        1
 10
0.0
 20
0.0
  0
POLYLINE
  5
234
100
AcDbEntity
  8
Solder_Pad_1_Top
100
AcDb2dPolyline
 66
       1
 10
0.0
 20
0.0
 30
0.0
 70
       1
  0
VERTEX
  5
235
100
AcDbEntity
  8
Solder_Pad_1_Top
100
AcDbVertex
100
AcDb2dVertex
 10
15.65
 20
8.21603
  0
VERTEX
  5
236
100
AcDbEntity
  8
Solder_Pad_1_Top
100
AcDbVertex
100
AcDb2dVertex
 10
15.65
 20
8.21603
  0
VERTEX
  5
237
100
AcDbEntity
  8
Solder_Pad_1_Top
100
AcDbVertex
100
AcDb2dVertex
 10
17.15
 20
9.08205
  0
VERTEX
  5
238
100
AcDbEntity
  8
Solder_Pad_1_Top
100
AcDbVertex
100
AcDb2dVertex
 10
18.65
 20
8.21603
  0
VERTEX
  5
239
100
AcDbEntity
  8
Solder_Pad_1_Top
100
AcDbVertex
100
AcDb2dVertex
 10
18.65
 20
6.48398
  0
VERTEX
  5
23A
100
AcDbEntity
  8
Solder_Pad_1_Top
100
AcDbVertex
100
AcDb2dVertex
 10
17.15
 20
5.61795
  0
VERTEX
  5
23B
100
AcDbEntity
  8
Solder_Pad_1_Top
100
AcDbVertex
100
AcDb2dVertex
 10
15.65
 20
6.48398
  0
VERTEX
  5
23C
100
AcDbEntity
  8
Solder_Pad_1_Top
100
AcDbVertex
100
AcDb2dVertex
 10
15.65
 20
8.21603
  0
SEQEND
  5
23D
100
AcDbEntity
  8
Solder_Pad_1_Top
  0
HATCH
  5
23E
100
AcDbEntity
  8
Solder_Pad_1_Top
100
AcDbHatch
 10
0.0
 20
0.0
 30
0.0
210
0.0
220
0.0
230
1.0
  2
SOLID
 70
       1
 71
       1
 91
        1
 92
        1
 93
        6
 72
       1
 10
12.15
 20
6.4839799999999999
 11
13.65
 21
5.6179500000000004
 72
       1
 10
13.65
 20
5.6179500000000004
 11
15.15
 21
6.4839799999999999
 72
       1
 10
15.15
 20
6.4839799999999999
 11
15.15
 21
8.2160299999999999
 72
       1
 10
15.15
 20
8.2160299999999999
 11
13.65
 21
9.0820500000000006
 72
       1
 10
13.65
 20
9.0820500000000006
 11
12.15
 21
8.2160299999999999
 72
       1
 10
12.15
 20
8.2160299999999999
 11
12.15
 21
6.4839799999999999
 97
        0
 75
       0
 76
       2
 98
        1
 10
0.0
 20
0.0
  0
POLYLINE
  5
23F
100
AcDbEntity
  8
Solder_Pad_1_Top
100
AcDb2dPolyline
 66
       1
 10
0.0
 20
0.0
 30
0.0
 70
       1
  0
VERTEX
  5
240
100
AcDbEntity
  8
Solder_Pad_1_Top
100
AcDbVertex
100
AcDb2dVertex
 10
12.15
 20
8.21603
  0
VERTEX
  5
241
100
AcDbEntity
  8
Solder_Pad_1_Top
100
AcDbVertex
100
AcDb2dVertex
 10
12.15
 20
8.21603
  0
VERTEX
  5
242
100
AcDbEntity
  8
Solder_Pad_1_Top
100
AcDbVertex
100
AcDb2dVertex
 10
13.65
 20
9.08205
  0
VERTEX
  5
243
100
AcDbEntity
  8
Solder_Pad_1_Top
100
AcDbVertex
100
AcDb2dVertex
 10
15.15
 20
8.21603
  0
VERTEX
  5
244
100
AcDbEntity
  8
Solder_Pad_1_Top
100
AcDbVertex
100
AcDb2dVertex
 10
15.15
 20
6.48398
  0
VERTEX
  5
245
100
AcDbEntity
  8
Solder_Pad_1_Top
100
AcDbVertex
100
AcDb2dVertex
 10
13.65
 20
5.61795
  0
VERTEX
  5
246
100
AcDbEntity
  8
Solder_Pad_1_Top
100
AcDbVertex
100
AcDb2dVertex
 10
12.15
 20
6.48398
  0
VERTEX
  5
247
100
AcDbEntity
  8
Solder_Pad_1_Top
100
AcDbVertex
100
AcDb2dVertex
 10
12.15
 20
8.21603
  0
SEQEND
  5
248
100
AcDbEntity
  8
Solder_Pad_1_Top
  0
HATCH
  5
249
100
AcDbEntity
  8
Solder_Pad_1_Top
100
AcDbHatch
 10
0.0
 20
0.0
 30
0.0
210
0.0
220
0.0
230
1.0
  2
SOLID
 70
       1
 71
       1
 91
        1
 92
        1
 93
        6
 72
       1
 10
8.6500000000000004
 20
6.4839799999999999
 11
10.15
 21
5.6179500000000004
 72
       1
 10
10.15
 20
5.6179500000000004
 11
11.65
 21
6.4839799999999999
 72
       1
 10
11.65
 20
6.4839799999999999
 11
11.65
 21
8.2160299999999999
 72
       1
 10
11.65
 20
8.2160299999999999
 11
10.15
 21
9.0820500000000006
 72
       1
 10
10.15
 20
9.0820500000000006
 11
8.6500000000000004
 21
8.2160299999999999
 72
       1
 10
8.6500000000000004
 20
8.2160299999999999
 11
8.6500000000000004
 21
6.4839799999999999
 97
        0
 75
       0
 76
       2
 98
        1
 10
0.0
 20
0.0
  0
POLYLINE
  5
24A
100
AcDbEntity
  8
Solder_Pad_1_Top
100
AcDb2dPolyline
 66
       1
 10
0.0
 20
0.0
 30
0.0
 70
       1
  0
VERTEX
  5
24B
100
AcDbEntity
  8
Solder_Pad_1_Top
100
AcDbVertex
100
AcDb2dVertex
 10
8.65
 20
8.21603
  0
VERTEX
  5
24C
100
AcDbEntity
  8
Solder_Pad_1_Top
100
AcDbVertex
100
AcDb2dVertex
 10
8.65
 20
8.21603
  0
VERTEX
  5
24D
100
AcDbEntity
  8
Solder_Pad_1_Top
100
AcDbVertex
100
AcDb2dVertex
 10
10.15
 20
9.08205
  0
VERTEX
  5
24E
100
AcDbEntity
  8
Solder_Pad_1_Top
100
AcDbVertex
100
AcDb2dVertex
 10
11.65
 20
8.21603
  0
VERTEX
  5
24F
100
AcDbEntity
  8
Solder_Pad_1_Top
100
AcDbVertex
100
AcDb2dVertex
 10
11.65
 20
6.48398
  0
VERTEX
  5
250
100
AcDbEntity
  8
Solder_Pad_1_Top
100
AcDbVertex
100
AcDb2dVertex
 10
10.15
 20
5.61795
  0
VERTEX
  5
251
100
AcDbEntity
  8
Solder_Pad_1_Top
100
AcDbVertex
100
AcDb2dVertex
 10
8.65
 20
6.48398
  0
VERTEX
  5
252
100
AcDbEntity
  8
Solder_Pad_1_Top
100
AcDbVertex
100
AcDb2dVertex
 10
8.65
 20
8.21603
  0
SEQEND
  5
253
100
AcDbEntity
  8
Solder_Pad_1_Top
  0
HATCH
  5
254
100
AcDbEntity
  8
Solder_Pad_1_Top
100
AcDbHatch
 10
0.0
 20
0.0
 30
0.0
210
0.0
220
0.0
230
1.0
  2
SOLID
 70
       1
 71
       1
 91
        1
 92
        1
 93
        6
 72
       1
 10
24.399999999999999
 20
9.4839800000000007
 11
25.899999999999999
 21
8.6179500000000004
 72
       1
 10
25.899999999999999
 20
8.6179500000000004
 11
27.399999999999999
 21
9.4839800000000007
 72
       1
 10
27.399999999999999
 20
9.4839800000000007
 11
27.399999999999999
 21
11.21603
 72
       1
 10
27.399999999999999
 20
11.21603
 11
25.899999999999999
 21
12.082050000000001
 72
       1
 10
25.899999999999999
 20
12.082050000000001
 11
24.399999999999999
 21
11.21603
 72
       1
 10
24.399999999999999
 20
11.21603
 11
24.399999999999999
 21
9.4839800000000007
 97
        0
 75
       0
 76
       2
 98
        1
 10
0.0
 20
0.0
  0
POLYLINE
  5
255
100
AcDbEntity
  8
Solder_Pad_1_Top
100
AcDb2dPolyline
 66
       1
 10
0.0
 20
0.0
 30
0.0
 70
       1
  0
VERTEX
  5
256
100
AcDbEntity
  8
Solder_Pad_1_Top
100
AcDbVertex
100
AcDb2dVertex
 10
24.4
 20
11.21603
  0
VERTEX
  5
257
100
AcDbEntity
  8
Solder_Pad_1_Top
100
AcDbVertex
100
AcDb2dVertex
 10
24.4
 20
11.21603
  0
VERTEX
  5
258
100
AcDbEntity
  8
Solder_Pad_1_Top
100
AcDbVertex
100
AcDb2dVertex
 10
25.9
 20
12.08205
  0
VERTEX
  5
259
100
AcDbEntity
  8
Solder_Pad_1_Top
100
AcDbVertex
100
AcDb2dVertex
 10
27.4
 20
11.21603
  0
VERTEX
  5
25A
100
AcDbEntity
  8
Solder_Pad_1_Top
100
AcDbVertex
100
AcDb2dVertex
 10
27.4
 20
9.48398
  0
VERTEX
  5
25B
100
AcDbEntity
  8
Solder_Pad_1_Top
100
AcDbVertex
100
AcDb2dVertex
 10
25.9
 20
8.61795
  0
VERTEX
  5
25C
100
AcDbEntity
  8
Solder_Pad_1_Top
100
AcDbVertex
100
AcDb2dVertex
 10
24.4
 20
9.48398
  0
VERTEX
  5
25D
100
AcDbEntity
  8
Solder_Pad_1_Top
100
AcDbVertex
100
AcDb2dVertex
 10
24.4
 20
11.21603
  0
SEQEND
  5
25E
100
AcDbEntity
  8
Solder_Pad_1_Top
  0
HATCH
  5
25F
100
AcDbEntity
  8
Solder_Pad_1_Top
100
AcDbHatch
 10
0.0
 20
0.0
 30
0.0
210
0.0
220
0.0
230
1.0
  2
SOLID
 70
       1
 71
       1
 91
        1
 92
        1
 93
        6
 72
       1
 10
17.399999999999999
 20
9.4839800000000007
 11
18.899999999999999
 21
8.6179500000000004
 72
       1
 10
18.899999999999999
 20
8.6179500000000004
 11
20.399999999999999
 21
9.4839800000000007
 72
       1
 10
20.399999999999999
 20
9.4839800000000007
 11
20.399999999999999
 21
11.21603
 72
       1
 10
20.399999999999999
 20
11.21603
 11
18.899999999999999
 21
12.082050000000001
 72
       1
 10
18.899999999999999
 20
12.082050000000001
 11
17.399999999999999
 21
11.21603
 72
       1
 10
17.399999999999999
 20
11.21603
 11
17.399999999999999
 21
9.4839800000000007
 97
        0
 75
       0
 76
       2
 98
        1
 10
0.0
 20
0.0
  0
POLYLINE
  5
260
100
AcDbEntity
  8
Solder_Pad_1_Top
100
AcDb2dPolyline
 66
       1
 10
0.0
 20
0.0
 30
0.0
 70
       1
  0
VERTEX
  5
261
100
AcDbEntity
  8
Solder_Pad_1_Top
100
AcDbVertex
100
AcDb2dVertex
 10
17.4
 20
11.21603
  0
VERTEX
  5
262
100
AcDbEntity
  8
Solder_Pad_1_Top
100
AcDbVertex
100
AcDb2dVertex
 10
17.4
 20
11.21603
  0
VERTEX
  5
263
100
AcDbEntity
  8
Solder_Pad_1_Top
100
AcDbVertex
100
AcDb2dVertex
 10
18.9
 20
12.08205
  0
VERTEX
  5
264
100
AcDbEntity
  8
Solder_Pad_1_Top
100
AcDbVertex
100
AcDb2dVertex
 10
20.4
 20
11.21603
  0
VERTEX
  5
265
100
AcDbEntity
  8
Solder_Pad_1_Top
100
AcDbVertex
100
AcDb2dVertex
 10
20.4
 20
9.48398
  0
VERTEX
  5
266
100
AcDbEntity
  8
Solder_Pad_1_Top
100
AcDbVertex
100
AcDb2dVertex
 10
18.9
 20
8.61795
  0
VERTEX
  5
267
100
AcDbEntity
  8
Solder_Pad_1_Top
100
AcDbVertex
100
AcDb2dVertex
 10
17.4
 20
9.48398
  0
VERTEX
  5
268
100
AcDbEntity
  8
Solder_Pad_1_Top
100
AcDbVertex
100
AcDb2dVertex
 10
17.4
 20
11.21603
  0
SEQEND
  5
269
100
AcDbEntity
  8
Solder_Pad_1_Top
  0
HATCH
  5
26A
100
AcDbEntity
  8
Solder_Pad_1_Top
100
AcDbHatch
 10
0.0
 20
0.0
 30
0.0
210
0.0
220
0.0
230
1.0
  2
SOLID
 70
       1
 71
       1
 91
        1
 92
        1
 93
        6
 72
       1
 10
13.9
 20
9.4839800000000007
 11
15.4
 21
8.6179500000000004
 72
       1
 10
15.4
 20
8.6179500000000004
 11
16.899999999999999
 21
9.4839800000000007
 72
       1
 10
16.899999999999999
 20
9.4839800000000007
 11
16.899999999999999
 21
11.21603
 72
       1
 10
16.899999999999999
 20
11.21603
 11
15.4
 21
12.082050000000001
 72
       1
 10
15.4
 20
12.082050000000001
 11
13.9
 21
11.21603
 72
       1
 10
13.9
 20
11.21603
 11
13.9
 21
9.4839800000000007
 97
        0
 75
       0
 76
       2
 98
        1
 10
0.0
 20
0.0
  0
POLYLINE
  5
26B
100
AcDbEntity
  8
Solder_Pad_1_Top
100
AcDb2dPolyline
 66
       1
 10
0.0
 20
0.0
 30
0.0
 70
       1
  0
VERTEX
  5
26C
100
AcDbEntity
  8
Solder_Pad_1_Top
100
AcDbVertex
100
AcDb2dVertex
 10
13.9
 20
11.21603
  0
VERTEX
  5
26D
100
AcDbEntity
  8
Solder_Pad_1_Top
100
AcDbVertex
100
AcDb2dVertex
 10
13.9
 20
11.21603
  0
VERTEX
  5
26E
100
AcDbEntity
  8
Solder_Pad_1_Top
100
AcDbVertex
100
AcDb2dVertex
 10
15.4
 20
12.08205
  0
VERTEX
  5
26F
100
AcDbEntity
  8
Solder_Pad_1_Top
100
AcDbVertex
100
AcDb2dVertex
 10
16.9
 20
11.21603
  0
VERTEX
  5
270
100
AcDbEntity
  8
Solder_Pad_1_Top
100
AcDbVertex
100
AcDb2dVertex
 10
16.9
 20
9.48398
  0
VERTEX
  5
271
100
AcDbEntity
  8
Solder_Pad_1_Top
100
AcDbVertex
100
AcDb2dVertex
 10
15.4
 20
8.61795
  0
VERTEX
  5
272
100
AcDbEntity
  8
Solder_Pad_1_Top
100
AcDbVertex
100
AcDb2dVertex
 10
13.9
 20
9.48398
  0
VERTEX
  5
273
100
AcDbEntity
  8
Solder_Pad_1_Top
100
AcDbVertex
100
AcDb2dVertex
 10
13.9
 20
11.21603
  0
SEQEND
  5
274
100
AcDbEntity
  8
Solder_Pad_1_Top
  0
HATCH
  5
275
100
AcDbEntity
  8
Solder_Pad_1_Top
100
AcDbHatch
 10
0.0
 20
0.0
 30
0.0
210
0.0
220
0.0
230
1.0
  2
SOLID
 70
       1
 71
       1
 91
        1
 92
        1
 93
        6
 72
       1
 10
6.9000000000000004
 20
9.4839800000000007
 11
8.4000000000000004
 21
8.6179500000000004
 72
       1
 10
8.4000000000000004
 20
8.6179500000000004
 11
9.9000000000000004
 21
9.4839800000000007
 72
       1
 10
9.9000000000000004
 20
9.4839800000000007
 11
9.9000000000000004
 21
11.21603
 72
       1
 10
9.9000000000000004
 20
11.21603
 11
8.4000000000000004
 21
12.082050000000001
 72
       1
 10
8.4000000000000004
 20
12.082050000000001
 11
6.9000000000000004
 21
11.21603
 72
       1
 10
6.9000000000000004
 20
11.21603
 11
6.9000000000000004
 21
9.4839800000000007
 97
        0
 75
       0
 76
       2
 98
        1
 10
0.0
 20
0.0
  0
POLYLINE
  5
276
100
AcDbEntity
  8
Solder_Pad_1_Top
100
AcDb2dPolyline
 66
       1
 10
0.0
 20
0.0
 30
0.0
 70
       1
  0
VERTEX
  5
277
100
AcDbEntity
  8
Solder_Pad_1_Top
100
AcDbVertex
100
AcDb2dVertex
 10
6.9
 20
11.21603
  0
VERTEX
  5
278
100
AcDbEntity
  8
Solder_Pad_1_Top
100
AcDbVertex
100
AcDb2dVertex
 10
6.9
 20
11.21603
  0
VERTEX
  5
279
100
AcDbEntity
  8
Solder_Pad_1_Top
100
AcDbVertex
100
AcDb2dVertex
 10
8.4
 20
12.08205
  0
VERTEX
  5
27A
100
AcDbEntity
  8
Solder_Pad_1_Top
100
AcDbVertex
100
AcDb2dVertex
 10
9.9
 20
11.21603
  0
VERTEX
  5
27B
100
AcDbEntity
  8
Solder_Pad_1_Top
100
AcDbVertex
100
AcDb2dVertex
 10
9.9
 20
9.48398
  0
VERTEX
  5
27C
100
AcDbEntity
  8
Solder_Pad_1_Top
100
AcDbVertex
100
AcDb2dVertex
 10
8.4
 20
8.61795
  0
VERTEX
  5
27D
100
AcDbEntity
  8
Solder_Pad_1_Top
100
AcDbVertex
100
AcDb2dVertex
 10
6.9
 20
9.48398
  0
VERTEX
  5
27E
100
AcDbEntity
  8
Solder_Pad_1_Top
100
AcDbVertex
100
AcDb2dVertex
 10
6.9
 20
11.21603
  0
SEQEND
  5
27F
100
AcDbEntity
  8
Solder_Pad_1_Top
  0
HATCH
  5
280
100
AcDbEntity
  8
Solder_Pad_1_Top
100
AcDbHatch
 10
0.0
 20
0.0
 30
0.0
210
0.0
220
0.0
230
1.0
  2
SOLID
 70
       1
 71
       1
 91
        1
 92
        1
 93
        6
 72
       1
 10
22.649999999999999
 20
12.483980000000001
 11
24.149999999999999
 21
11.61795
 72
       1
 10
24.149999999999999
 20
11.61795
 11
25.649999999999999
 21
12.483980000000001
 72
       1
 10
25.649999999999999
 20
12.483980000000001
 11
25.649999999999999
 21
14.21603
 72
       1
 10
25.649999999999999
 20
14.21603
 11
24.149999999999999
 21
15.082050000000001
 72
       1
 10
24.149999999999999
 20
15.082050000000001
 11
22.649999999999999
 21
14.21603
 72
       1
 10
22.649999999999999
 20
14.21603
 11
22.649999999999999
 21
12.483980000000001
 97
        0
 75
       0
 76
       2
 98
        1
 10
0.0
 20
0.0
  0
POLYLINE
  5
281
100
AcDbEntity
  8
Solder_Pad_1_Top
100
AcDb2dPolyline
 66
       1
 10
0.0
 20
0.0
 30
0.0
 70
       1
  0
VERTEX
  5
282
100
AcDbEntity
  8
Solder_Pad_1_Top
100
AcDbVertex
100
AcDb2dVertex
 10
22.65
 20
14.21603
  0
VERTEX
  5
283
100
AcDbEntity
  8
Solder_Pad_1_Top
100
AcDbVertex
100
AcDb2dVertex
 10
22.65
 20
14.21603
  0
VERTEX
  5
284
100
AcDbEntity
  8
Solder_Pad_1_Top
100
AcDbVertex
100
AcDb2dVertex
 10
24.15
 20
15.08205
  0
VERTEX
  5
285
100
AcDbEntity
  8
Solder_Pad_1_Top
100
AcDbVertex
100
AcDb2dVertex
 10
25.65
 20
14.21603
  0
VERTEX
  5
286
100
AcDbEntity
  8
Solder_Pad_1_Top
100
AcDbVertex
100
AcDb2dVertex
 10
25.65
 20
12.48398
  0
VERTEX
  5
287
100
AcDbEntity
  8
Solder_Pad_1_Top
100
AcDbVertex
100
AcDb2dVertex
 10
24.15
 20
11.61795
  0
VERTEX
  5
288
100
AcDbEntity
  8
Solder_Pad_1_Top
100
AcDbVertex
100
AcDb2dVertex
 10
22.65
 20
12.48398
  0
VERTEX
  5
289
100
AcDbEntity
  8
Solder_Pad_1_Top
100
AcDbVertex
100
AcDb2dVertex
 10
22.65
 20
14.21603
  0
SEQEND
  5
28A
100
AcDbEntity
  8
Solder_Pad_1_Top
  0
HATCH
  5
28B
100
AcDbEntity
  8
Solder_Pad_1_Top
100
AcDbHatch
 10
0.0
 20
0.0
 30
0.0
210
0.0
220
0.0
230
1.0
  2
SOLID
 70
       1
 71
       1
 91
        1
 92
        1
 93
        6
 72
       1
 10
15.65
 20
12.483980000000001
 11
17.149999999999999
 21
11.61795
 72
       1
 10
17.149999999999999
 20
11.61795
 11
18.649999999999999
 21
12.483980000000001
 72
       1
 10
18.649999999999999
 20
12.483980000000001
 11
18.649999999999999
 21
14.21603
 72
       1
 10
18.649999999999999
 20
14.21603
 11
17.149999999999999
 21
15.082050000000001
 72
       1
 10
17.149999999999999
 20
15.082050000000001
 11
15.65
 21
14.21603
 72
       1
 10
15.65
 20
14.21603
 11
15.65
 21
12.483980000000001
 97
        0
 75
       0
 76
       2
 98
        1
 10
0.0
 20
0.0
  0
POLYLINE
  5
28C
100
AcDbEntity
  8
Solder_Pad_1_Top
100
AcDb2dPolyline
 66
       1
 10
0.0
 20
0.0
 30
0.0
 70
       1
  0
VERTEX
  5
28D
100
AcDbEntity
  8
Solder_Pad_1_Top
100
AcDbVertex
100
AcDb2dVertex
 10
15.65
 20
14.21603
  0
VERTEX
  5
28E
100
AcDbEntity
  8
Solder_Pad_1_Top
100
AcDbVertex
100
AcDb2dVertex
 10
15.65
 20
14.21603
  0
VERTEX
  5
28F
100
AcDbEntity
  8
Solder_Pad_1_Top
100
AcDbVertex
100
AcDb2dVertex
 10
17.15
 20
15.08205
  0
VERTEX
  5
290
100
AcDbEntity
  8
Solder_Pad_1_Top
100
AcDbVertex
100
AcDb2dVertex
 10
18.65
 20
14.21603
  0
VERTEX
  5
291
100
AcDbEntity
  8
Solder_Pad_1_Top
100
AcDbVertex
100
AcDb2dVertex
 10
18.65
 20
12.48398
  0
VERTEX
  5
292
100
AcDbEntity
  8
Solder_Pad_1_Top
100
AcDbVertex
100
AcDb2dVertex
 10
17.15
 20
11.61795
  0
VERTEX
  5
293
100
AcDbEntity
  8
Solder_Pad_1_Top
100
AcDbVertex
100
AcDb2dVertex
 10
15.65
 20
12.48398
  0
VERTEX
  5
294
100
AcDbEntity
  8
Solder_Pad_1_Top
100
AcDbVertex
100
AcDb2dVertex
 10
15.65
 20
14.21603
  0
SEQEND
  5
295
100
AcDbEntity
  8
Solder_Pad_1_Top
  0
HATCH
  5
296
100
AcDbEntity
  8
Solder_Pad_1_Top
100
AcDbHatch
 10
0.0
 20
0.0
 30
0.0
210
0.0
220
0.0
230
1.0
  2
SOLID
 70
       1
 71
       1
 91
        1
 92
        1
 93
        6
 72
       1
 10
12.15
 20
12.483980000000001
 11
13.65
 21
11.61795
 72
       1
 10
13.65
 20
11.61795
 11
15.15
 21
12.483980000000001
 72
       1
 10
15.15
 20
12.483980000000001
 11
15.15
 21
14.21603
 72
       1
 10
15.15
 20
14.21603
 11
13.65
 21
15.082050000000001
 72
       1
 10
13.65
 20
15.082050000000001
 11
12.15
 21
14.21603
 72
       1
 10
12.15
 20
14.21603
 11
12.15
 21
12.483980000000001
 97
        0
 75
       0
 76
       2
 98
        1
 10
0.0
 20
0.0
  0
POLYLINE
  5
297
100
AcDbEntity
  8
Solder_Pad_1_Top
100
AcDb2dPolyline
 66
       1
 10
0.0
 20
0.0
 30
0.0
 70
       1
  0
VERTEX
  5
298
100
AcDbEntity
  8
Solder_Pad_1_Top
100
AcDbVertex
100
AcDb2dVertex
 10
12.15
 20
14.21603
  0
VERTEX
  5
299
100
AcDbEntity
  8
Solder_Pad_1_Top
100
AcDbVertex
100
AcDb2dVertex
 10
12.15
 20
14.21603
  0
VERTEX
  5
29A
100
AcDbEntity
  8
Solder_Pad_1_Top
100
AcDbVertex
100
AcDb2dVertex
 10
13.65
 20
15.08205
  0
VERTEX
  5
29B
100
AcDbEntity
  8
Solder_Pad_1_Top
100
AcDbVertex
100
AcDb2dVertex
 10
15.15
 20
14.21603
  0
VERTEX
  5
29C
100
AcDbEntity
  8
Solder_Pad_1_Top
100
AcDbVertex
100
AcDb2dVertex
 10
15.15
 20
12.48398
  0
VERTEX
  5
29D
100
AcDbEntity
  8
Solder_Pad_1_Top
100
AcDbVertex
100
AcDb2dVertex
 10
13.65
 20
11.61795
  0
VERTEX
  5
29E
100
AcDbEntity
  8
Solder_Pad_1_Top
100
AcDbVertex
100
AcDb2dVertex
 10
12.15
 20
12.48398
  0
VERTEX
  5
29F
100
AcDbEntity
  8
Solder_Pad_1_Top
100
AcDbVertex
100
AcDb2dVertex
 10
12.15
 20
14.21603
  0
SEQEND
  5
2A0
100
AcDbEntity
  8
Solder_Pad_1_Top
  0
HATCH
  5
2A1
100
AcDbEntity
  8
Solder_Pad_1_Top
100
AcDbHatch
 10
0.0
 20
0.0
 30
0.0
210
0.0
220
0.0
230
1.0
  2
SOLID
 70
       1
 71
       1
 91
        1
 92
        1
 93
        6
 72
       1
 10
8.6500000000000004
 20
12.483980000000001
 11
10.15
 21
11.61795
 72
       1
 10
10.15
 20
11.61795
 11
11.65
 21
12.483980000000001
 72
       1
 10
11.65
 20
12.483980000000001
 11
11.65
 21
14.21603
 72
       1
 10
11.65
 20
14.21603
 11
10.15
 21
15.082050000000001
 72
       1
 10
10.15
 20
15.082050000000001
 11
8.6500000000000004
 21
14.21603
 72
       1
 10
8.6500000000000004
 20
14.21603
 11
8.6500000000000004
 21
12.483980000000001
 97
        0
 75
       0
 76
       2
 98
        1
 10
0.0
 20
0.0
  0
POLYLINE
  5
2A2
100
AcDbEntity
  8
Solder_Pad_1_Top
100
AcDb2dPolyline
 66
       1
 10
0.0
 20
0.0
 30
0.0
 70
       1
  0
VERTEX
  5
2A3
100
AcDbEntity
  8
Solder_Pad_1_Top
100
AcDbVertex
100
AcDb2dVertex
 10
8.65
 20
14.21603
  0
VERTEX
  5
2A4
100
AcDbEntity
  8
Solder_Pad_1_Top
100
AcDbVertex
100
AcDb2dVertex
 10
8.65
 20
14.21603
  0
VERTEX
  5
2A5
100
AcDbEntity
  8
Solder_Pad_1_Top
100
AcDbVertex
100
AcDb2dVertex
 10
10.15
 20
15.08205
  0
VERTEX
  5
2A6
100
AcDbEntity
  8
Solder_Pad_1_Top
100
AcDbVertex
100
AcDb2dVertex
 10
11.65
 20
14.21603
  0
VERTEX
  5
2A7
100
AcDbEntity
  8
Solder_Pad_1_Top
100
AcDbVertex
100
AcDb2dVertex
 10
11.65
 20
12.48398
  0
VERTEX
  5
2A8
100
AcDbEntity
  8
Solder_Pad_1_Top
100
AcDbVertex
100
AcDb2dVertex
 10
10.15
 20
11.61795
  0
VERTEX
  5
2A9
100
AcDbEntity
  8
Solder_Pad_1_Top
100
AcDbVertex
100
AcDb2dVertex
 10
8.65
 20
12.48398
  0
VERTEX
  5
2AA
100
AcDbEntity
  8
Solder_Pad_1_Top
100
AcDbVertex
100
AcDb2dVertex
 10
8.65
 20
14.21603
  0
SEQEND
  5
2AB
100
AcDbEntity
  8
Solder_Pad_1_Top
  0
HATCH
  5
2AC
100
AcDbEntity
  8
Solder_Pad_1_Top
100
AcDbHatch
 10
0.0
 20
0.0
 30
0.0
210
0.0
220
0.0
230
1.0
  2
SOLID
 70
       1
 71
       1
 91
        1
 92
        1
 93
        6
 72
       1
 10
10.4
 20
9.4839800000000007
 11
11.9
 21
8.6179500000000004
 72
       1
 10
11.9
 20
8.6179500000000004
 11
13.4
 21
9.4839800000000007
 72
       1
 10
13.4
 20
9.4839800000000007
 11
13.4
 21
11.21603
 72
       1
 10
13.4
 20
11.21603
 11
11.9
 21
12.082050000000001
 72
       1
 10
11.9
 20
12.082050000000001
 11
10.4
 21
11.21603
 72
       1
 10
10.4
 20
11.21603
 11
10.4
 21
9.4839800000000007
 97
        0
 75
       0
 76
       2
 98
        1
 10
0.0
 20
0.0
  0
POLYLINE
  5
2AD
100
AcDbEntity
  8
Solder_Pad_1_Top
100
AcDb2dPolyline
 66
       1
 10
0.0
 20
0.0
 30
0.0
 70
       1
  0
VERTEX
  5
2AE
100
AcDbEntity
  8
Solder_Pad_1_Top
100
AcDbVertex
100
AcDb2dVertex
 10
10.4
 20
11.21603
  0
VERTEX
  5
2AF
100
AcDbEntity
  8
Solder_Pad_1_Top
100
AcDbVertex
100
AcDb2dVertex
 10
10.4
 20
11.21603
  0
VERTEX
  5
2B0
100
AcDbEntity
  8
Solder_Pad_1_Top
100
AcDbVertex
100
AcDb2dVertex
 10
11.9
 20
12.08205
  0
VERTEX
  5
2B1
100
AcDbEntity
  8
Solder_Pad_1_Top
100
AcDbVertex
100
AcDb2dVertex
 10
13.4
 20
11.21603
  0
VERTEX
  5
2B2
100
AcDbEntity
  8
Solder_Pad_1_Top
100
AcDbVertex
100
AcDb2dVertex
 10
13.4
 20
9.48398
  0
VERTEX
  5
2B3
100
AcDbEntity
  8
Solder_Pad_1_Top
100
AcDbVertex
100
AcDb2dVertex
 10
11.9
 20
8.61795
  0
VERTEX
  5
2B4
100
AcDbEntity
  8
Solder_Pad_1_Top
100
AcDbVertex
100
AcDb2dVertex
 10
10.4
 20
9.48398
  0
VERTEX
  5
2B5
100
AcDbEntity
  8
Solder_Pad_1_Top
100
AcDbVertex
100
AcDb2dVertex
 10
10.4
 20
11.21603
  0
SEQEND
  5
2B6
100
AcDbEntity
  8
Solder_Pad_1_Top
  0
HATCH
  5
2B7
100
AcDbEntity
  8
Solder_Pad_1_Top
100
AcDbHatch
 10
0.0
 20
0.0
 30
0.0
210
0.0
220
0.0
230
1.0
  2
SOLID
 70
       1
 71
       1
 91
        1
 92
        1
 93
        6
 72
       1
 10
20.899999999999999
 20
9.4839800000000007
 11
22.399999999999999
 21
8.6179500000000004
 72
       1
 10
22.399999999999999
 20
8.6179500000000004
 11
23.899999999999999
 21
9.4839800000000007
 72
       1
 10
23.899999999999999
 20
9.4839800000000007
 11
23.899999999999999
 21
11.21603
 72
       1
 10
23.899999999999999
 20
11.21603
 11
22.399999999999999
 21
12.082050000000001
 72
       1
 10
22.399999999999999
 20
12.082050000000001
 11
20.899999999999999
 21
11.21603
 72
       1
 10
20.899999999999999
 20
11.21603
 11
20.899999999999999
 21
9.4839800000000007
 97
        0
 75
       0
 76
       2
 98
        1
 10
0.0
 20
0.0
  0
POLYLINE
  5
2B8
100
AcDbEntity
  8
Solder_Pad_1_Top
100
AcDb2dPolyline
 66
       1
 10
0.0
 20
0.0
 30
0.0
 70
       1
  0
VERTEX
  5
2B9
100
AcDbEntity
  8
Solder_Pad_1_Top
100
AcDbVertex
100
AcDb2dVertex
 10
20.9
 20
11.21603
  0
VERTEX
  5
2BA
100
AcDbEntity
  8
Solder_Pad_1_Top
100
AcDbVertex
100
AcDb2dVertex
 10
20.9
 20
11.21603
  0
VERTEX
  5
2BB
100
AcDbEntity
  8
Solder_Pad_1_Top
100
AcDbVertex
100
AcDb2dVertex
 10
22.4
 20
12.08205
  0
VERTEX
  5
2BC
100
AcDbEntity
  8
Solder_Pad_1_Top
100
AcDbVertex
100
AcDb2dVertex
 10
23.9
 20
11.21603
  0
VERTEX
  5
2BD
100
AcDbEntity
  8
Solder_Pad_1_Top
100
AcDbVertex
100
AcDb2dVertex
 10
23.9
 20
9.48398
  0
VERTEX
  5
2BE
100
AcDbEntity
  8
Solder_Pad_1_Top
100
AcDbVertex
100
AcDb2dVertex
 10
22.4
 20
8.61795
  0
VERTEX
  5
2BF
100
AcDbEntity
  8
Solder_Pad_1_Top
100
AcDbVertex
100
AcDb2dVertex
 10
20.9
 20
9.48398
  0
VERTEX
  5
2C0
100
AcDbEntity
  8
Solder_Pad_1_Top
100
AcDbVertex
100
AcDb2dVertex
 10
20.9
 20
11.21603
  0
SEQEND
  5
2C1
100
AcDbEntity
  8
Solder_Pad_1_Top
  0
HATCH
  5
2C2
100
AcDbEntity
  8
Solder_Pad_1_Top
100
AcDbHatch
 10
0.0
 20
0.0
 30
0.0
210
0.0
220
0.0
230
1.0
  2
SOLID
 70
       1
 71
       1
 91
        1
 92
        1
 93
        6
 72
       1
 10
10.4
 20
3.4839799999999999
 11
11.9
 21
2.61795
 72
       1
 10
11.9
 20
2.61795
 11
13.4
 21
3.4839799999999999
 72
       1
 10
13.4
 20
3.4839799999999999
 11
13.4
 21
5.2160299999999999
 72
       1
 10
13.4
 20
5.2160299999999999
 11
11.9
 21
6.0820499999999997
 72
       1
 10
11.9
 20
6.0820499999999997
 11
10.4
 21
5.2160299999999999
 72
       1
 10
10.4
 20
5.2160299999999999
 11
10.4
 21
3.4839799999999999
 97
        0
 75
       0
 76
       2
 98
        1
 10
0.0
 20
0.0
  0
POLYLINE
  5
2C3
100
AcDbEntity
  8
Solder_Pad_1_Top
100
AcDb2dPolyline
 66
       1
 10
0.0
 20
0.0
 30
0.0
 70
       1
  0
VERTEX
  5
2C4
100
AcDbEntity
  8
Solder_Pad_1_Top
100
AcDbVertex
100
AcDb2dVertex
 10
10.4
 20
5.21603
  0
VERTEX
  5
2C5
100
AcDbEntity
  8
Solder_Pad_1_Top
100
AcDbVertex
100
AcDb2dVertex
 10
10.4
 20
5.21603
  0
VERTEX
  5
2C6
100
AcDbEntity
  8
Solder_Pad_1_Top
100
AcDbVertex
100
AcDb2dVertex
 10
11.9
 20
6.08205
  0
VERTEX
  5
2C7
100
AcDbEntity
  8
Solder_Pad_1_Top
100
AcDbVertex
100
AcDb2dVertex
 10
13.4
 20
5.21603
  0
VERTEX
  5
2C8
100
AcDbEntity
  8
Solder_Pad_1_Top
100
AcDbVertex
100
AcDb2dVertex
 10
13.4
 20
3.48398
  0
VERTEX
  5
2C9
100
AcDbEntity
  8
Solder_Pad_1_Top
100
AcDbVertex
100
AcDb2dVertex
 10
11.9
 20
2.61795
  0
VERTEX
  5
2CA
100
AcDbEntity
  8
Solder_Pad_1_Top
100
AcDbVertex
100
AcDb2dVertex
 10
10.4
 20
3.48398
  0
VERTEX
  5
2CB
100
AcDbEntity
  8
Solder_Pad_1_Top
100
AcDbVertex
100
AcDb2dVertex
 10
10.4
 20
5.21603
  0
SEQEND
  5
2CC
100
AcDbEntity
  8
Solder_Pad_1_Top
  0
HATCH
  5
2CD
100
AcDbEntity
  8
Solder_Pad_1_Top
100
AcDbHatch
 10
0.0
 20
0.0
 30
0.0
210
0.0
220
0.0
230
1.0
  2
SOLID
 70
       1
 71
       1
 91
        1
 92
        1
 93
        6
 72
       1
 10
22.649999999999999
 20
6.4839799999999999
 11
24.149999999999999
 21
5.6179500000000004
 72
       1
 10
24.149999999999999
 20
5.6179500000000004
 11
25.649999999999999
 21
6.4839799999999999
 72
       1
 10
25.649999999999999
 20
6.4839799999999999
 11
25.649999999999999
 21
8.2160299999999999
 72
       1
 10
25.649999999999999
 20
8.2160299999999999
 11
24.149999999999999
 21
9.0820500000000006
 72
       1
 10
24.149999999999999
 20
9.0820500000000006
 11
22.649999999999999
 21
8.2160299999999999
 72
       1
 10
22.649999999999999
 20
8.2160299999999999
 11
22.649999999999999
 21
6.4839799999999999
 97
        0
 75
       0
 76
       2
 98
        1
 10
0.0
 20
0.0
  0
POLYLINE
  5
2CE
100
AcDbEntity
  8
Solder_Pad_1_Top
100
AcDb2dPolyline
 66
       1
 10
0.0
 20
0.0
 30
0.0
 70
       1
  0
VERTEX
  5
2CF
100
AcDbEntity
  8
Solder_Pad_1_Top
100
AcDbVertex
100
AcDb2dVertex
 10
22.65
 20
8.21603
  0
VERTEX
  5
2D0
100
AcDbEntity
  8
Solder_Pad_1_Top
100
AcDbVertex
100
AcDb2dVertex
 10
22.65
 20
8.21603
  0
VERTEX
  5
2D1
100
AcDbEntity
  8
Solder_Pad_1_Top
100
AcDbVertex
100
AcDb2dVertex
 10
24.15
 20
9.08205
  0
VERTEX
  5
2D2
100
AcDbEntity
  8
Solder_Pad_1_Top
100
AcDbVertex
100
AcDb2dVertex
 10
25.65
 20
8.21603
  0
VERTEX
  5
2D3
100
AcDbEntity
  8
Solder_Pad_1_Top
100
AcDbVertex
100
AcDb2dVertex
 10
25.65
 20
6.48398
  0
VERTEX
  5
2D4
100
AcDbEntity
  8
Solder_Pad_1_Top
100
AcDbVertex
100
AcDb2dVertex
 10
24.15
 20
5.61795
  0
VERTEX
  5
2D5
100
AcDbEntity
  8
Solder_Pad_1_Top
100
AcDbVertex
100
AcDb2dVertex
 10
22.65
 20
6.48398
  0
VERTEX
  5
2D6
100
AcDbEntity
  8
Solder_Pad_1_Top
100
AcDbVertex
100
AcDb2dVertex
 10
22.65
 20
8.21603
  0
SEQEND
  5
2D7
100
AcDbEntity
  8
Solder_Pad_1_Top
  0
HATCH
  5
2D8
100
AcDbEntity
  8
Solder_Pad_1_Top
100
AcDbHatch
 10
0.0
 20
0.0
 30
0.0
210
0.0
220
0.0
230
1.0
  2
SOLID
 70
       1
 71
       1
 91
        1
 92
        1
 93
        6
 72
       1
 10
26.149999999999999
 20
12.43398
 11
27.649999999999999
 21
11.56795
 72
       1
 10
27.649999999999999
 20
11.56795
 11
29.149999999999999
 21
12.43398
 72
       1
 10
29.149999999999999
 20
12.43398
 11
29.149999999999999
 21
14.166029999999999
 72
       1
 10
29.149999999999999
 20
14.166029999999999
 11
27.649999999999999
 21
15.03205
 72
       1
 10
27.649999999999999
 20
15.03205
 11
26.149999999999999
 21
14.166029999999999
 72
       1
 10
26.149999999999999
 20
14.166029999999999
 11
26.149999999999999
 21
12.43398
 97
        0
 75
       0
 76
       2
 98
        1
 10
0.0
 20
0.0
  0
POLYLINE
  5
2D9
100
AcDbEntity
  8
Solder_Pad_1_Top
100
AcDb2dPolyline
 66
       1
 10
0.0
 20
0.0
 30
0.0
 70
       1
  0
VERTEX
  5
2DA
100
AcDbEntity
  8
Solder_Pad_1_Top
100
AcDbVertex
100
AcDb2dVertex
 10
26.15
 20
14.16603
  0
VERTEX
  5
2DB
100
AcDbEntity
  8
Solder_Pad_1_Top
100
AcDbVertex
100
AcDb2dVertex
 10
26.15
 20
14.16603
  0
VERTEX
  5
2DC
100
AcDbEntity
  8
Solder_Pad_1_Top
100
AcDbVertex
100
AcDb2dVertex
 10
27.65
 20
15.03205
  0
VERTEX
  5
2DD
100
AcDbEntity
  8
Solder_Pad_1_Top
100
AcDbVertex
100
AcDb2dVertex
 10
29.15
 20
14.16603
  0
VERTEX
  5
2DE
100
AcDbEntity
  8
Solder_Pad_1_Top
100
AcDbVertex
100
AcDb2dVertex
 10
29.15
 20
12.43398
  0
VERTEX
  5
2DF
100
AcDbEntity
  8
Solder_Pad_1_Top
100
AcDbVertex
100
AcDb2dVertex
 10
27.65
 20
11.56795
  0
VERTEX
  5
2E0
100
AcDbEntity
  8
Solder_Pad_1_Top
100
AcDbVertex
100
AcDb2dVertex
 10
26.15
 20
12.43398
  0
VERTEX
  5
2E1
100
AcDbEntity
  8
Solder_Pad_1_Top
100
AcDbVertex
100
AcDb2dVertex
 10
26.15
 20
14.16603
  0
SEQEND
  5
2E2
100
AcDbEntity
  8
Solder_Pad_1_Top
  0
HATCH
  5
2E3
100
AcDbEntity
  8
Solder_Pad_1_Top
100
AcDbHatch
 10
0.0
 20
0.0
 30
0.0
210
0.0
220
0.0
230
1.0
  2
SOLID
 70
       1
 71
       1
 91
        1
 92
        1
 93
        6
 72
       1
 10
3.3999999999999999
 20
15.483980000000001
 11
4.9000000000000004
 21
14.61795
 72
       1
 10
4.9000000000000004
 20
14.61795
 11
6.4000000000000004
 21
15.483980000000001
 72
       1
 10
6.4000000000000004
 20
15.483980000000001
 11
6.4000000000000004
 21
17.21603
 72
       1
 10
6.4000000000000004
 20
17.21603
 11
4.9000000000000004
 21
18.082049999999999
 72
       1
 10
4.9000000000000004
 20
18.082049999999999
 11
3.3999999999999999
 21
17.21603
 72
       1
 10
3.3999999999999999
 20
17.21603
 11
3.3999999999999999
 21
15.483980000000001
 97
        0
 75
       0
 76
       2
 98
        1
 10
0.0
 20
0.0
  0
POLYLINE
  5
2E4
100
AcDbEntity
  8
Solder_Pad_1_Top
100
AcDb2dPolyline
 66
       1
 10
0.0
 20
0.0
 30
0.0
 70
       1
  0
VERTEX
  5
2E5
100
AcDbEntity
  8
Solder_Pad_1_Top
100
AcDbVertex
100
AcDb2dVertex
 10
3.4
 20
17.21603
  0
VERTEX
  5
2E6
100
AcDbEntity
  8
Solder_Pad_1_Top
100
AcDbVertex
100
AcDb2dVertex
 10
3.4
 20
17.21603
  0
VERTEX
  5
2E7
100
AcDbEntity
  8
Solder_Pad_1_Top
100
AcDbVertex
100
AcDb2dVertex
 10
4.9
 20
18.08205
  0
VERTEX
  5
2E8
100
AcDbEntity
  8
Solder_Pad_1_Top
100
AcDbVertex
100
AcDb2dVertex
 10
6.4
 20
17.21603
  0
VERTEX
  5
2E9
100
AcDbEntity
  8
Solder_Pad_1_Top
100
AcDbVertex
100
AcDb2dVertex
 10
6.4
 20
15.48398
  0
VERTEX
  5
2EA
100
AcDbEntity
  8
Solder_Pad_1_Top
100
AcDbVertex
100
AcDb2dVertex
 10
4.9
 20
14.61795
  0
VERTEX
  5
2EB
100
AcDbEntity
  8
Solder_Pad_1_Top
100
AcDbVertex
100
AcDb2dVertex
 10
3.4
 20
15.48398
  0
VERTEX
  5
2EC
100
AcDbEntity
  8
Solder_Pad_1_Top
100
AcDbVertex
100
AcDb2dVertex
 10
3.4
 20
17.21603
  0
SEQEND
  5
2ED
100
AcDbEntity
  8
Solder_Pad_1_Top
  0
HATCH
  5
2EE
100
AcDbEntity
  8
Solder_Pad_1_Top
100
AcDbHatch
 10
0.0
 20
0.0
 30
0.0
210
0.0
220
0.0
230
1.0
  2
SOLID
 70
       1
 71
       1
 91
        1
 92
        1
 93
        6
 72
       1
 10
3.3999999999999999
 20
21.483979999999999
 11
4.9000000000000004
 21
20.61795
 72
       1
 10
4.9000000000000004
 20
20.61795
 11
6.4000000000000004
 21
21.483979999999999
 72
       1
 10
6.4000000000000004
 20
21.483979999999999
 11
6.4000000000000004
 21
23.21603
 72
       1
 10
6.4000000000000004
 20
23.21603
 11
4.9000000000000004
 21
24.082049999999999
 72
       1
 10
4.9000000000000004
 20
24.082049999999999
 11
3.3999999999999999
 21
23.21603
 72
       1
 10
3.3999999999999999
 20
23.21603
 11
3.3999999999999999
 21
21.483979999999999
 97
        0
 75
       0
 76
       2
 98
        1
 10
0.0
 20
0.0
  0
POLYLINE
  5
2EF
100
AcDbEntity
  8
Solder_Pad_1_Top
100
AcDb2dPolyline
 66
       1
 10
0.0
 20
0.0
 30
0.0
 70
       1
  0
VERTEX
  5
2F0
100
AcDbEntity
  8
Solder_Pad_1_Top
100
AcDbVertex
100
AcDb2dVertex
 10
3.4
 20
23.21603
  0
VERTEX
  5
2F1
100
AcDbEntity
  8
Solder_Pad_1_Top
100
AcDbVertex
100
AcDb2dVertex
 10
3.4
 20
23.21603
  0
VERTEX
  5
2F2
100
AcDbEntity
  8
Solder_Pad_1_Top
100
AcDbVertex
100
AcDb2dVertex
 10
4.9
 20
24.08205
  0
VERTEX
  5
2F3
100
AcDbEntity
  8
Solder_Pad_1_Top
100
AcDbVertex
100
AcDb2dVertex
 10
6.4
 20
23.21603
  0
VERTEX
  5
2F4
100
AcDbEntity
  8
Solder_Pad_1_Top
100
AcDbVertex
100
AcDb2dVertex
 10
6.4
 20
21.48398
  0
VERTEX
  5
2F5
100
AcDbEntity
  8
Solder_Pad_1_Top
100
AcDbVertex
100
AcDb2dVertex
 10
4.9
 20
20.61795
  0
VERTEX
  5
2F6
100
AcDbEntity
  8
Solder_Pad_1_Top
100
AcDbVertex
100
AcDb2dVertex
 10
3.4
 20
21.48398
  0
VERTEX
  5
2F7
100
AcDbEntity
  8
Solder_Pad_1_Top
100
AcDbVertex
100
AcDb2dVertex
 10
3.4
 20
23.21603
  0
SEQEND
  5
2F8
100
AcDbEntity
  8
Solder_Pad_1_Top
  0
HATCH
  5
2F9
100
AcDbEntity
  8
Solder_Pad_1_Top
100
AcDbHatch
 10
0.0
 20
0.0
 30
0.0
210
0.0
220
0.0
230
1.0
  2
SOLID
 70
       1
 71
       1
 91
        1
 92
        1
 93
        6
 72
       1
 10
6.9000000000000004
 20
15.483980000000001
 11
8.4000000000000004
 21
14.61795
 72
       1
 10
8.4000000000000004
 20
14.61795
 11
9.9000000000000004
 21
15.483980000000001
 72
       1
 10
9.9000000000000004
 20
15.483980000000001
 11
9.9000000000000004
 21
17.21603
 72
       1
 10
9.9000000000000004
 20
17.21603
 11
8.4000000000000004
 21
18.082049999999999
 72
       1
 10
8.4000000000000004
 20
18.082049999999999
 11
6.9000000000000004
 21
17.21603
 72
       1
 10
6.9000000000000004
 20
17.21603
 11
6.9000000000000004
 21
15.483980000000001
 97
        0
 75
       0
 76
       2
 98
        1
 10
0.0
 20
0.0
  0
POLYLINE
  5
2FA
100
AcDbEntity
  8
Solder_Pad_1_Top
100
AcDb2dPolyline
 66
       1
 10
0.0
 20
0.0
 30
0.0
 70
       1
  0
VERTEX
  5
2FB
100
AcDbEntity
  8
Solder_Pad_1_Top
100
AcDbVertex
100
AcDb2dVertex
 10
6.9
 20
17.21603
  0
VERTEX
  5
2FC
100
AcDbEntity
  8
Solder_Pad_1_Top
100
AcDbVertex
100
AcDb2dVertex
 10
6.9
 20
17.21603
  0
VERTEX
  5
2FD
100
AcDbEntity
  8
Solder_Pad_1_Top
100
AcDbVertex
100
AcDb2dVertex
 10
8.4
 20
18.08205
  0
VERTEX
  5
2FE
100
AcDbEntity
  8
Solder_Pad_1_Top
100
AcDbVertex
100
AcDb2dVertex
 10
9.9
 20
17.21603
  0
VERTEX
  5
2FF
100
AcDbEntity
  8
Solder_Pad_1_Top
100
AcDbVertex
100
AcDb2dVertex
 10
9.9
 20
15.48398
  0
VERTEX
  5
300
100
AcDbEntity
  8
Solder_Pad_1_Top
100
AcDbVertex
100
AcDb2dVertex
 10
8.4
 20
14.61795
  0
VERTEX
  5
301
100
AcDbEntity
  8
Solder_Pad_1_Top
100
AcDbVertex
100
AcDb2dVertex
 10
6.9
 20
15.48398
  0
VERTEX
  5
302
100
AcDbEntity
  8
Solder_Pad_1_Top
100
AcDbVertex
100
AcDb2dVertex
 10
6.9
 20
17.21603
  0
SEQEND
  5
303
100
AcDbEntity
  8
Solder_Pad_1_Top
  0
HATCH
  5
304
100
AcDbEntity
  8
Solder_Pad_1_Top
100
AcDbHatch
 10
0.0
 20
0.0
 30
0.0
210
0.0
220
0.0
230
1.0
  2
SOLID
 70
       1
 71
       1
 91
        1
 92
        1
 93
        6
 72
       1
 10
10.4
 20
15.483980000000001
 11
11.9
 21
14.61795
 72
       1
 10
11.9
 20
14.61795
 11
13.4
 21
15.483980000000001
 72
       1
 10
13.4
 20
15.483980000000001
 11
13.4
 21
17.21603
 72
       1
 10
13.4
 20
17.21603
 11
11.9
 21
18.082049999999999
 72
       1
 10
11.9
 20
18.082049999999999
 11
10.4
 21
17.21603
 72
       1
 10
10.4
 20
17.21603
 11
10.4
 21
15.483980000000001
 97
        0
 75
       0
 76
       2
 98
        1
 10
0.0
 20
0.0
  0
POLYLINE
  5
305
100
AcDbEntity
  8
Solder_Pad_1_Top
100
AcDb2dPolyline
 66
       1
 10
0.0
 20
0.0
 30
0.0
 70
       1
  0
VERTEX
  5
306
100
AcDbEntity
  8
Solder_Pad_1_Top
100
AcDbVertex
100
AcDb2dVertex
 10
10.4
 20
17.21603
  0
VERTEX
  5
307
100
AcDbEntity
  8
Solder_Pad_1_Top
100
AcDbVertex
100
AcDb2dVertex
 10
10.4
 20
17.21603
  0
VERTEX
  5
308
100
AcDbEntity
  8
Solder_Pad_1_Top
100
AcDbVertex
100
AcDb2dVertex
 10
11.9
 20
18.08205
  0
VERTEX
  5
309
100
AcDbEntity
  8
Solder_Pad_1_Top
100
AcDbVertex
100
AcDb2dVertex
 10
13.4
 20
17.21603
  0
VERTEX
  5
30A
100
AcDbEntity
  8
Solder_Pad_1_Top
100
AcDbVertex
100
AcDb2dVertex
 10
13.4
 20
15.48398
  0
VERTEX
  5
30B
100
AcDbEntity
  8
Solder_Pad_1_Top
100
AcDbVertex
100
AcDb2dVertex
 10
11.9
 20
14.61795
  0
VERTEX
  5
30C
100
AcDbEntity
  8
Solder_Pad_1_Top
100
AcDbVertex
100
AcDb2dVertex
 10
10.4
 20
15.48398
  0
VERTEX
  5
30D
100
AcDbEntity
  8
Solder_Pad_1_Top
100
AcDbVertex
100
AcDb2dVertex
 10
10.4
 20
17.21603
  0
SEQEND
  5
30E
100
AcDbEntity
  8
Solder_Pad_1_Top
  0
HATCH
  5
30F
100
AcDbEntity
  8
Solder_Pad_1_Top
100
AcDbHatch
 10
0.0
 20
0.0
 30
0.0
210
0.0
220
0.0
230
1.0
  2
SOLID
 70
       1
 71
       1
 91
        1
 92
        1
 93
        6
 72
       1
 10
13.9
 20
15.483980000000001
 11
15.4
 21
14.61795
 72
       1
 10
15.4
 20
14.61795
 11
16.899999999999999
 21
15.483980000000001
 72
       1
 10
16.899999999999999
 20
15.483980000000001
 11
16.899999999999999
 21
17.21603
 72
       1
 10
16.899999999999999
 20
17.21603
 11
15.4
 21
18.082049999999999
 72
       1
 10
15.4
 20
18.082049999999999
 11
13.9
 21
17.21603
 72
       1
 10
13.9
 20
17.21603
 11
13.9
 21
15.483980000000001
 97
        0
 75
       0
 76
       2
 98
        1
 10
0.0
 20
0.0
  0
POLYLINE
  5
310
100
AcDbEntity
  8
Solder_Pad_1_Top
100
AcDb2dPolyline
 66
       1
 10
0.0
 20
0.0
 30
0.0
 70
       1
  0
VERTEX
  5
311
100
AcDbEntity
  8
Solder_Pad_1_Top
100
AcDbVertex
100
AcDb2dVertex
 10
13.9
 20
17.21603
  0
VERTEX
  5
312
100
AcDbEntity
  8
Solder_Pad_1_Top
100
AcDbVertex
100
AcDb2dVertex
 10
13.9
 20
17.21603
  0
VERTEX
  5
313
100
AcDbEntity
  8
Solder_Pad_1_Top
100
AcDbVertex
100
AcDb2dVertex
 10
15.4
 20
18.08205
  0
VERTEX
  5
314
100
AcDbEntity
  8
Solder_Pad_1_Top
100
AcDbVertex
100
AcDb2dVertex
 10
16.9
 20
17.21603
  0
VERTEX
  5
315
100
AcDbEntity
  8
Solder_Pad_1_Top
100
AcDbVertex
100
AcDb2dVertex
 10
16.9
 20
15.48398
  0
VERTEX
  5
316
100
AcDbEntity
  8
Solder_Pad_1_Top
100
AcDbVertex
100
AcDb2dVertex
 10
15.4
 20
14.61795
  0
VERTEX
  5
317
100
AcDbEntity
  8
Solder_Pad_1_Top
100
AcDbVertex
100
AcDb2dVertex
 10
13.9
 20
15.48398
  0
VERTEX
  5
318
100
AcDbEntity
  8
Solder_Pad_1_Top
100
AcDbVertex
100
AcDb2dVertex
 10
13.9
 20
17.21603
  0
SEQEND
  5
319
100
AcDbEntity
  8
Solder_Pad_1_Top
  0
HATCH
  5
31A
100
AcDbEntity
  8
Solder_Pad_1_Top
100
AcDbHatch
 10
0.0
 20
0.0
 30
0.0
210
0.0
220
0.0
230
1.0
  2
SOLID
 70
       1
 71
       1
 91
        1
 92
        1
 93
        6
 72
       1
 10
17.399999999999999
 20
15.483980000000001
 11
18.899999999999999
 21
14.61795
 72
       1
 10
18.899999999999999
 20
14.61795
 11
20.399999999999999
 21
15.483980000000001
 72
       1
 10
20.399999999999999
 20
15.483980000000001
 11
20.399999999999999
 21
17.21603
 72
       1
 10
20.399999999999999
 20
17.21603
 11
18.899999999999999
 21
18.082049999999999
 72
       1
 10
18.899999999999999
 20
18.082049999999999
 11
17.399999999999999
 21
17.21603
 72
       1
 10
17.399999999999999
 20
17.21603
 11
17.399999999999999
 21
15.483980000000001
 97
        0
 75
       0
 76
       2
 98
        1
 10
0.0
 20
0.0
  0
POLYLINE
  5
31B
100
AcDbEntity
  8
Solder_Pad_1_Top
100
AcDb2dPolyline
 66
       1
 10
0.0
 20
0.0
 30
0.0
 70
       1
  0
VERTEX
  5
31C
100
AcDbEntity
  8
Solder_Pad_1_Top
100
AcDbVertex
100
AcDb2dVertex
 10
17.4
 20
17.21603
  0
VERTEX
  5
31D
100
AcDbEntity
  8
Solder_Pad_1_Top
100
AcDbVertex
100
AcDb2dVertex
 10
17.4
 20
17.21603
  0
VERTEX
  5
31E
100
AcDbEntity
  8
Solder_Pad_1_Top
100
AcDbVertex
100
AcDb2dVertex
 10
18.9
 20
18.08205
  0
VERTEX
  5
31F
100
AcDbEntity
  8
Solder_Pad_1_Top
100
AcDbVertex
100
AcDb2dVertex
 10
20.4
 20
17.21603
  0
VERTEX
  5
320
100
AcDbEntity
  8
Solder_Pad_1_Top
100
AcDbVertex
100
AcDb2dVertex
 10
20.4
 20
15.48398
  0
VERTEX
  5
321
100
AcDbEntity
  8
Solder_Pad_1_Top
100
AcDbVertex
100
AcDb2dVertex
 10
18.9
 20
14.61795
  0
VERTEX
  5
322
100
AcDbEntity
  8
Solder_Pad_1_Top
100
AcDbVertex
100
AcDb2dVertex
 10
17.4
 20
15.48398
  0
VERTEX
  5
323
100
AcDbEntity
  8
Solder_Pad_1_Top
100
AcDbVertex
100
AcDb2dVertex
 10
17.4
 20
17.21603
  0
SEQEND
  5
324
100
AcDbEntity
  8
Solder_Pad_1_Top
  0
HATCH
  5
325
100
AcDbEntity
  8
Solder_Pad_1_Top
100
AcDbHatch
 10
0.0
 20
0.0
 30
0.0
210
0.0
220
0.0
230
1.0
  2
SOLID
 70
       1
 71
       1
 91
        1
 92
        1
 93
        6
 72
       1
 10
20.899999999999999
 20
15.483980000000001
 11
22.399999999999999
 21
14.61795
 72
       1
 10
22.399999999999999
 20
14.61795
 11
23.899999999999999
 21
15.483980000000001
 72
       1
 10
23.899999999999999
 20
15.483980000000001
 11
23.899999999999999
 21
17.21603
 72
       1
 10
23.899999999999999
 20
17.21603
 11
22.399999999999999
 21
18.082049999999999
 72
       1
 10
22.399999999999999
 20
18.082049999999999
 11
20.899999999999999
 21
17.21603
 72
       1
 10
20.899999999999999
 20
17.21603
 11
20.899999999999999
 21
15.483980000000001
 97
        0
 75
       0
 76
       2
 98
        1
 10
0.0
 20
0.0
  0
POLYLINE
  5
326
100
AcDbEntity
  8
Solder_Pad_1_Top
100
AcDb2dPolyline
 66
       1
 10
0.0
 20
0.0
 30
0.0
 70
       1
  0
VERTEX
  5
327
100
AcDbEntity
  8
Solder_Pad_1_Top
100
AcDbVertex
100
AcDb2dVertex
 10
20.9
 20
17.21603
  0
VERTEX
  5
328
100
AcDbEntity
  8
Solder_Pad_1_Top
100
AcDbVertex
100
AcDb2dVertex
 10
20.9
 20
17.21603
  0
VERTEX
  5
329
100
AcDbEntity
  8
Solder_Pad_1_Top
100
AcDbVertex
100
AcDb2dVertex
 10
22.4
 20
18.08205
  0
VERTEX
  5
32A
100
AcDbEntity
  8
Solder_Pad_1_Top
100
AcDbVertex
100
AcDb2dVertex
 10
23.9
 20
17.21603
  0
VERTEX
  5
32B
100
AcDbEntity
  8
Solder_Pad_1_Top
100
AcDbVertex
100
AcDb2dVertex
 10
23.9
 20
15.48398
  0
VERTEX
  5
32C
100
AcDbEntity
  8
Solder_Pad_1_Top
100
AcDbVertex
100
AcDb2dVertex
 10
22.4
 20
14.61795
  0
VERTEX
  5
32D
100
AcDbEntity
  8
Solder_Pad_1_Top
100
AcDbVertex
100
AcDb2dVertex
 10
20.9
 20
15.48398
  0
VERTEX
  5
32E
100
AcDbEntity
  8
Solder_Pad_1_Top
100
AcDbVertex
100
AcDb2dVertex
 10
20.9
 20
17.21603
  0
SEQEND
  5
32F
100
AcDbEntity
  8
Solder_Pad_1_Top
  0
HATCH
  5
330
100
AcDbEntity
  8
Solder_Pad_1_Top
100
AcDbHatch
 10
0.0
 20
0.0
 30
0.0
210
0.0
220
0.0
230
1.0
  2
SOLID
 70
       1
 71
       1
 91
        1
 92
        1
 93
        6
 72
       1
 10
24.399999999999999
 20
15.483980000000001
 11
25.899999999999999
 21
14.61795
 72
       1
 10
25.899999999999999
 20
14.61795
 11
27.399999999999999
 21
15.483980000000001
 72
       1
 10
27.399999999999999
 20
15.483980000000001
 11
27.399999999999999
 21
17.21603
 72
       1
 10
27.399999999999999
 20
17.21603
 11
25.899999999999999
 21
18.082049999999999
 72
       1
 10
25.899999999999999
 20
18.082049999999999
 11
24.399999999999999
 21
17.21603
 72
       1
 10
24.399999999999999
 20
17.21603
 11
24.399999999999999
 21
15.483980000000001
 97
        0
 75
       0
 76
       2
 98
        1
 10
0.0
 20
0.0
  0
POLYLINE
  5
331
100
AcDbEntity
  8
Solder_Pad_1_Top
100
AcDb2dPolyline
 66
       1
 10
0.0
 20
0.0
 30
0.0
 70
       1
  0
VERTEX
  5
332
100
AcDbEntity
  8
Solder_Pad_1_Top
100
AcDbVertex
100
AcDb2dVertex
 10
24.4
 20
17.21603
  0
VERTEX
  5
333
100
AcDbEntity
  8
Solder_Pad_1_Top
100
AcDbVertex
100
AcDb2dVertex
 10
24.4
 20
17.21603
  0
VERTEX
  5
334
100
AcDbEntity
  8
Solder_Pad_1_Top
100
AcDbVertex
100
AcDb2dVertex
 10
25.9
 20
18.08205
  0
VERTEX
  5
335
100
AcDbEntity
  8
Solder_Pad_1_Top
100
AcDbVertex
100
AcDb2dVertex
 10
27.4
 20
17.21603
  0
VERTEX
  5
336
100
AcDbEntity
  8
Solder_Pad_1_Top
100
AcDbVertex
100
AcDb2dVertex
 10
27.4
 20
15.48398
  0
VERTEX
  5
337
100
AcDbEntity
  8
Solder_Pad_1_Top
100
AcDbVertex
100
AcDb2dVertex
 10
25.9
 20
14.61795
  0
VERTEX
  5
338
100
AcDbEntity
  8
Solder_Pad_1_Top
100
AcDbVertex
100
AcDb2dVertex
 10
24.4
 20
15.48398
  0
VERTEX
  5
339
100
AcDbEntity
  8
Solder_Pad_1_Top
100
AcDbVertex
100
AcDb2dVertex
 10
24.4
 20
17.21603
  0
SEQEND
  5
33A
100
AcDbEntity
  8
Solder_Pad_1_Top
  0
HATCH
  5
33B
100
AcDbEntity
  8
Solder_Pad_1_Top
100
AcDbHatch
 10
0.0
 20
0.0
 30
0.0
210
0.0
220
0.0
230
1.0
  2
SOLID
 70
       1
 71
       1
 91
        1
 92
        1
 93
        6
 72
       1
 10
5.1500000000000004
 20
18.483979999999999
 11
6.6500000000000004
 21
17.61795
 72
       1
 10
6.6500000000000004
 20
17.61795
 11
8.1500000000000004
 21
18.483979999999999
 72
       1
 10
8.1500000000000004
 20
18.483979999999999
 11
8.1500000000000004
 21
20.21603
 72
       1
 10
8.1500000000000004
 20
20.21603
 11
6.6500000000000004
 21
21.082049999999999
 72
       1
 10
6.6500000000000004
 20
21.082049999999999
 11
5.1500000000000004
 21
20.21603
 72
       1
 10
5.1500000000000004
 20
20.21603
 11
5.1500000000000004
 21
18.483979999999999
 97
        0
 75
       0
 76
       2
 98
        1
 10
0.0
 20
0.0
  0
POLYLINE
  5
33C
100
AcDbEntity
  8
Solder_Pad_1_Top
100
AcDb2dPolyline
 66
       1
 10
0.0
 20
0.0
 30
0.0
 70
       1
  0
VERTEX
  5
33D
100
AcDbEntity
  8
Solder_Pad_1_Top
100
AcDbVertex
100
AcDb2dVertex
 10
5.15
 20
20.21603
  0
VERTEX
  5
33E
100
AcDbEntity
  8
Solder_Pad_1_Top
100
AcDbVertex
100
AcDb2dVertex
 10
5.15
 20
20.21603
  0
VERTEX
  5
33F
100
AcDbEntity
  8
Solder_Pad_1_Top
100
AcDbVertex
100
AcDb2dVertex
 10
6.65
 20
21.08205
  0
VERTEX
  5
340
100
AcDbEntity
  8
Solder_Pad_1_Top
100
AcDbVertex
100
AcDb2dVertex
 10
8.15
 20
20.21603
  0
VERTEX
  5
341
100
AcDbEntity
  8
Solder_Pad_1_Top
100
AcDbVertex
100
AcDb2dVertex
 10
8.15
 20
18.48398
  0
VERTEX
  5
342
100
AcDbEntity
  8
Solder_Pad_1_Top
100
AcDbVertex
100
AcDb2dVertex
 10
6.65
 20
17.61795
  0
VERTEX
  5
343
100
AcDbEntity
  8
Solder_Pad_1_Top
100
AcDbVertex
100
AcDb2dVertex
 10
5.15
 20
18.48398
  0
VERTEX
  5
344
100
AcDbEntity
  8
Solder_Pad_1_Top
100
AcDbVertex
100
AcDb2dVertex
 10
5.15
 20
20.21603
  0
SEQEND
  5
345
100
AcDbEntity
  8
Solder_Pad_1_Top
  0
HATCH
  5
346
100
AcDbEntity
  8
Solder_Pad_1_Top
100
AcDbHatch
 10
0.0
 20
0.0
 30
0.0
210
0.0
220
0.0
230
1.0
  2
SOLID
 70
       1
 71
       1
 91
        1
 92
        1
 93
        6
 72
       1
 10
12.15
 20
18.483979999999999
 11
13.65
 21
17.61795
 72
       1
 10
13.65
 20
17.61795
 11
15.15
 21
18.483979999999999
 72
       1
 10
15.15
 20
18.483979999999999
 11
15.15
 21
20.21603
 72
       1
 10
15.15
 20
20.21603
 11
13.65
 21
21.082049999999999
 72
       1
 10
13.65
 20
21.082049999999999
 11
12.15
 21
20.21603
 72
       1
 10
12.15
 20
20.21603
 11
12.15
 21
18.483979999999999
 97
        0
 75
       0
 76
       2
 98
        1
 10
0.0
 20
0.0
  0
POLYLINE
  5
347
100
AcDbEntity
  8
Solder_Pad_1_Top
100
AcDb2dPolyline
 66
       1
 10
0.0
 20
0.0
 30
0.0
 70
       1
  0
VERTEX
  5
348
100
AcDbEntity
  8
Solder_Pad_1_Top
100
AcDbVertex
100
AcDb2dVertex
 10
12.15
 20
20.21603
  0
VERTEX
  5
349
100
AcDbEntity
  8
Solder_Pad_1_Top
100
AcDbVertex
100
AcDb2dVertex
 10
12.15
 20
20.21603
  0
VERTEX
  5
34A
100
AcDbEntity
  8
Solder_Pad_1_Top
100
AcDbVertex
100
AcDb2dVertex
 10
13.65
 20
21.08205
  0
VERTEX
  5
34B
100
AcDbEntity
  8
Solder_Pad_1_Top
100
AcDbVertex
100
AcDb2dVertex
 10
15.15
 20
20.21603
  0
VERTEX
  5
34C
100
AcDbEntity
  8
Solder_Pad_1_Top
100
AcDbVertex
100
AcDb2dVertex
 10
15.15
 20
18.48398
  0
VERTEX
  5
34D
100
AcDbEntity
  8
Solder_Pad_1_Top
100
AcDbVertex
100
AcDb2dVertex
 10
13.65
 20
17.61795
  0
VERTEX
  5
34E
100
AcDbEntity
  8
Solder_Pad_1_Top
100
AcDbVertex
100
AcDb2dVertex
 10
12.15
 20
18.48398
  0
VERTEX
  5
34F
100
AcDbEntity
  8
Solder_Pad_1_Top
100
AcDbVertex
100
AcDb2dVertex
 10
12.15
 20
20.21603
  0
SEQEND
  5
350
100
AcDbEntity
  8
Solder_Pad_1_Top
  0
HATCH
  5
351
100
AcDbEntity
  8
Solder_Pad_1_Top
100
AcDbHatch
 10
0.0
 20
0.0
 30
0.0
210
0.0
220
0.0
230
1.0
  2
SOLID
 70
       1
 71
       1
 91
        1
 92
        1
 93
        6
 72
       1
 10
15.65
 20
18.483979999999999
 11
17.149999999999999
 21
17.61795
 72
       1
 10
17.149999999999999
 20
17.61795
 11
18.649999999999999
 21
18.483979999999999
 72
       1
 10
18.649999999999999
 20
18.483979999999999
 11
18.649999999999999
 21
20.21603
 72
       1
 10
18.649999999999999
 20
20.21603
 11
17.149999999999999
 21
21.082049999999999
 72
       1
 10
17.149999999999999
 20
21.082049999999999
 11
15.65
 21
20.21603
 72
       1
 10
15.65
 20
20.21603
 11
15.65
 21
18.483979999999999
 97
        0
 75
       0
 76
       2
 98
        1
 10
0.0
 20
0.0
  0
POLYLINE
  5
352
100
AcDbEntity
  8
Solder_Pad_1_Top
100
AcDb2dPolyline
 66
       1
 10
0.0
 20
0.0
 30
0.0
 70
       1
  0
VERTEX
  5
353
100
AcDbEntity
  8
Solder_Pad_1_Top
100
AcDbVertex
100
AcDb2dVertex
 10
15.65
 20
20.21603
  0
VERTEX
  5
354
100
AcDbEntity
  8
Solder_Pad_1_Top
100
AcDbVertex
100
AcDb2dVertex
 10
15.65
 20
20.21603
  0
VERTEX
  5
355
100
AcDbEntity
  8
Solder_Pad_1_Top
100
AcDbVertex
100
AcDb2dVertex
 10
17.15
 20
21.08205
  0
VERTEX
  5
356
100
AcDbEntity
  8
Solder_Pad_1_Top
100
AcDbVertex
100
AcDb2dVertex
 10
18.65
 20
20.21603
  0
VERTEX
  5
357
100
AcDbEntity
  8
Solder_Pad_1_Top
100
AcDbVertex
100
AcDb2dVertex
 10
18.65
 20
18.48398
  0
VERTEX
  5
358
100
AcDbEntity
  8
Solder_Pad_1_Top
100
AcDbVertex
100
AcDb2dVertex
 10
17.15
 20
17.61795
  0
VERTEX
  5
359
100
AcDbEntity
  8
Solder_Pad_1_Top
100
AcDbVertex
100
AcDb2dVertex
 10
15.65
 20
18.48398
  0
VERTEX
  5
35A
100
AcDbEntity
  8
Solder_Pad_1_Top
100
AcDbVertex
100
AcDb2dVertex
 10
15.65
 20
20.21603
  0
SEQEND
  5
35B
100
AcDbEntity
  8
Solder_Pad_1_Top
  0
HATCH
  5
35C
100
AcDbEntity
  8
Solder_Pad_1_Top
100
AcDbHatch
 10
0.0
 20
0.0
 30
0.0
210
0.0
220
0.0
230
1.0
  2
SOLID
 70
       1
 71
       1
 91
        1
 92
        1
 93
        6
 72
       1
 10
19.149999999999999
 20
18.483979999999999
 11
20.649999999999999
 21
17.61795
 72
       1
 10
20.649999999999999
 20
17.61795
 11
22.149999999999999
 21
18.483979999999999
 72
       1
 10
22.149999999999999
 20
18.483979999999999
 11
22.149999999999999
 21
20.21603
 72
       1
 10
22.149999999999999
 20
20.21603
 11
20.649999999999999
 21
21.082049999999999
 72
       1
 10
20.649999999999999
 20
21.082049999999999
 11
19.149999999999999
 21
20.21603
 72
       1
 10
19.149999999999999
 20
20.21603
 11
19.149999999999999
 21
18.483979999999999
 97
        0
 75
       0
 76
       2
 98
        1
 10
0.0
 20
0.0
  0
POLYLINE
  5
35D
100
AcDbEntity
  8
Solder_Pad_1_Top
100
AcDb2dPolyline
 66
       1
 10
0.0
 20
0.0
 30
0.0
 70
       1
  0
VERTEX
  5
35E
100
AcDbEntity
  8
Solder_Pad_1_Top
100
AcDbVertex
100
AcDb2dVertex
 10
19.15
 20
20.21603
  0
VERTEX
  5
35F
100
AcDbEntity
  8
Solder_Pad_1_Top
100
AcDbVertex
100
AcDb2dVertex
 10
19.15
 20
20.21603
  0
VERTEX
  5
360
100
AcDbEntity
  8
Solder_Pad_1_Top
100
AcDbVertex
100
AcDb2dVertex
 10
20.65
 20
21.08205
  0
VERTEX
  5
361
100
AcDbEntity
  8
Solder_Pad_1_Top
100
AcDbVertex
100
AcDb2dVertex
 10
22.15
 20
20.21603
  0
VERTEX
  5
362
100
AcDbEntity
  8
Solder_Pad_1_Top
100
AcDbVertex
100
AcDb2dVertex
 10
22.15
 20
18.48398
  0
VERTEX
  5
363
100
AcDbEntity
  8
Solder_Pad_1_Top
100
AcDbVertex
100
AcDb2dVertex
 10
20.65
 20
17.61795
  0
VERTEX
  5
364
100
AcDbEntity
  8
Solder_Pad_1_Top
100
AcDbVertex
100
AcDb2dVertex
 10
19.15
 20
18.48398
  0
VERTEX
  5
365
100
AcDbEntity
  8
Solder_Pad_1_Top
100
AcDbVertex
100
AcDb2dVertex
 10
19.15
 20
20.21603
  0
SEQEND
  5
366
100
AcDbEntity
  8
Solder_Pad_1_Top
  0
HATCH
  5
367
100
AcDbEntity
  8
Solder_Pad_1_Top
100
AcDbHatch
 10
0.0
 20
0.0
 30
0.0
210
0.0
220
0.0
230
1.0
  2
SOLID
 70
       1
 71
       1
 91
        1
 92
        1
 93
        6
 72
       1
 10
22.649999999999999
 20
18.483979999999999
 11
24.149999999999999
 21
17.61795
 72
       1
 10
24.149999999999999
 20
17.61795
 11
25.649999999999999
 21
18.483979999999999
 72
       1
 10
25.649999999999999
 20
18.483979999999999
 11
25.649999999999999
 21
20.21603
 72
       1
 10
25.649999999999999
 20
20.21603
 11
24.149999999999999
 21
21.082049999999999
 72
       1
 10
24.149999999999999
 20
21.082049999999999
 11
22.649999999999999
 21
20.21603
 72
       1
 10
22.649999999999999
 20
20.21603
 11
22.649999999999999
 21
18.483979999999999
 97
        0
 75
       0
 76
       2
 98
        1
 10
0.0
 20
0.0
  0
POLYLINE
  5
368
100
AcDbEntity
  8
Solder_Pad_1_Top
100
AcDb2dPolyline
 66
       1
 10
0.0
 20
0.0
 30
0.0
 70
       1
  0
VERTEX
  5
369
100
AcDbEntity
  8
Solder_Pad_1_Top
100
AcDbVertex
100
AcDb2dVertex
 10
22.65
 20
20.21603
  0
VERTEX
  5
36A
100
AcDbEntity
  8
Solder_Pad_1_Top
100
AcDbVertex
100
AcDb2dVertex
 10
22.65
 20
20.21603
  0
VERTEX
  5
36B
100
AcDbEntity
  8
Solder_Pad_1_Top
100
AcDbVertex
100
AcDb2dVertex
 10
24.15
 20
21.08205
  0
VERTEX
  5
36C
100
AcDbEntity
  8
Solder_Pad_1_Top
100
AcDbVertex
100
AcDb2dVertex
 10
25.65
 20
20.21603
  0
VERTEX
  5
36D
100
AcDbEntity
  8
Solder_Pad_1_Top
100
AcDbVertex
100
AcDb2dVertex
 10
25.65
 20
18.48398
  0
VERTEX
  5
36E
100
AcDbEntity
  8
Solder_Pad_1_Top
100
AcDbVertex
100
AcDb2dVertex
 10
24.15
 20
17.61795
  0
VERTEX
  5
36F
100
AcDbEntity
  8
Solder_Pad_1_Top
100
AcDbVertex
100
AcDb2dVertex
 10
22.65
 20
18.48398
  0
VERTEX
  5
370
100
AcDbEntity
  8
Solder_Pad_1_Top
100
AcDbVertex
100
AcDb2dVertex
 10
22.65
 20
20.21603
  0
SEQEND
  5
371
100
AcDbEntity
  8
Solder_Pad_1_Top
  0
HATCH
  5
372
100
AcDbEntity
  8
Solder_Pad_1_Top
100
AcDbHatch
 10
0.0
 20
0.0
 30
0.0
210
0.0
220
0.0
230
1.0
  2
SOLID
 70
       1
 71
       1
 91
        1
 92
        1
 93
        6
 72
       1
 10
24.399999999999999
 20
21.483979999999999
 11
25.899999999999999
 21
20.61795
 72
       1
 10
25.899999999999999
 20
20.61795
 11
27.399999999999999
 21
21.483979999999999
 72
       1
 10
27.399999999999999
 20
21.483979999999999
 11
27.399999999999999
 21
23.21603
 72
       1
 10
27.399999999999999
 20
23.21603
 11
25.899999999999999
 21
24.082049999999999
 72
       1
 10
25.899999999999999
 20
24.082049999999999
 11
24.399999999999999
 21
23.21603
 72
       1
 10
24.399999999999999
 20
23.21603
 11
24.399999999999999
 21
21.483979999999999
 97
        0
 75
       0
 76
       2
 98
        1
 10
0.0
 20
0.0
  0
POLYLINE
  5
373
100
AcDbEntity
  8
Solder_Pad_1_Top
100
AcDb2dPolyline
 66
       1
 10
0.0
 20
0.0
 30
0.0
 70
       1
  0
VERTEX
  5
374
100
AcDbEntity
  8
Solder_Pad_1_Top
100
AcDbVertex
100
AcDb2dVertex
 10
24.4
 20
23.21603
  0
VERTEX
  5
375
100
AcDbEntity
  8
Solder_Pad_1_Top
100
AcDbVertex
100
AcDb2dVertex
 10
24.4
 20
23.21603
  0
VERTEX
  5
376
100
AcDbEntity
  8
Solder_Pad_1_Top
100
AcDbVertex
100
AcDb2dVertex
 10
25.9
 20
24.08205
  0
VERTEX
  5
377
100
AcDbEntity
  8
Solder_Pad_1_Top
100
AcDbVertex
100
AcDb2dVertex
 10
27.4
 20
23.21603
  0
VERTEX
  5
378
100
AcDbEntity
  8
Solder_Pad_1_Top
100
AcDbVertex
100
AcDb2dVertex
 10
27.4
 20
21.48398
  0
VERTEX
  5
379
100
AcDbEntity
  8
Solder_Pad_1_Top
100
AcDbVertex
100
AcDb2dVertex
 10
25.9
 20
20.61795
  0
VERTEX
  5
37A
100
AcDbEntity
  8
Solder_Pad_1_Top
100
AcDbVertex
100
AcDb2dVertex
 10
24.4
 20
21.48398
  0
VERTEX
  5
37B
100
AcDbEntity
  8
Solder_Pad_1_Top
100
AcDbVertex
100
AcDb2dVertex
 10
24.4
 20
23.21603
  0
SEQEND
  5
37C
100
AcDbEntity
  8
Solder_Pad_1_Top
  0
HATCH
  5
37D
100
AcDbEntity
  8
Solder_Pad_1_Top
100
AcDbHatch
 10
0.0
 20
0.0
 30
0.0
210
0.0
220
0.0
230
1.0
  2
SOLID
 70
       1
 71
       1
 91
        1
 92
        1
 93
        6
 72
       1
 10
10.4
 20
21.483979999999999
 11
11.9
 21
20.61795
 72
       1
 10
11.9
 20
20.61795
 11
13.4
 21
21.483979999999999
 72
       1
 10
13.4
 20
21.483979999999999
 11
13.4
 21
23.21603
 72
       1
 10
13.4
 20
23.21603
 11
11.9
 21
24.082049999999999
 72
       1
 10
11.9
 20
24.082049999999999
 11
10.4
 21
23.21603
 72
       1
 10
10.4
 20
23.21603
 11
10.4
 21
21.483979999999999
 97
        0
 75
       0
 76
       2
 98
        1
 10
0.0
 20
0.0
  0
POLYLINE
  5
37E
100
AcDbEntity
  8
Solder_Pad_1_Top
100
AcDb2dPolyline
 66
       1
 10
0.0
 20
0.0
 30
0.0
 70
       1
  0
VERTEX
  5
37F
100
AcDbEntity
  8
Solder_Pad_1_Top
100
AcDbVertex
100
AcDb2dVertex
 10
10.4
 20
23.21603
  0
VERTEX
  5
380
100
AcDbEntity
  8
Solder_Pad_1_Top
100
AcDbVertex
100
AcDb2dVertex
 10
10.4
 20
23.21603
  0
VERTEX
  5
381
100
AcDbEntity
  8
Solder_Pad_1_Top
100
AcDbVertex
100
AcDb2dVertex
 10
11.9
 20
24.08205
  0
VERTEX
  5
382
100
AcDbEntity
  8
Solder_Pad_1_Top
100
AcDbVertex
100
AcDb2dVertex
 10
13.4
 20
23.21603
  0
VERTEX
  5
383
100
AcDbEntity
  8
Solder_Pad_1_Top
100
AcDbVertex
100
AcDb2dVertex
 10
13.4
 20
21.48398
  0
VERTEX
  5
384
100
AcDbEntity
  8
Solder_Pad_1_Top
100
AcDbVertex
100
AcDb2dVertex
 10
11.9
 20
20.61795
  0
VERTEX
  5
385
100
AcDbEntity
  8
Solder_Pad_1_Top
100
AcDbVertex
100
AcDb2dVertex
 10
10.4
 20
21.48398
  0
VERTEX
  5
386
100
AcDbEntity
  8
Solder_Pad_1_Top
100
AcDbVertex
100
AcDb2dVertex
 10
10.4
 20
23.21603
  0
SEQEND
  5
387
100
AcDbEntity
  8
Solder_Pad_1_Top
  0
HATCH
  5
388
100
AcDbEntity
  8
Solder_Pad_1_Top
100
AcDbHatch
 10
0.0
 20
0.0
 30
0.0
210
0.0
220
0.0
230
1.0
  2
SOLID
 70
       1
 71
       1
 91
        1
 92
        1
 93
        6
 72
       1
 10
20.899999999999999
 20
21.483979999999999
 11
22.399999999999999
 21
20.61795
 72
       1
 10
22.399999999999999
 20
20.61795
 11
23.899999999999999
 21
21.483979999999999
 72
       1
 10
23.899999999999999
 20
21.483979999999999
 11
23.899999999999999
 21
23.21603
 72
       1
 10
23.899999999999999
 20
23.21603
 11
22.399999999999999
 21
24.082049999999999
 72
       1
 10
22.399999999999999
 20
24.082049999999999
 11
20.899999999999999
 21
23.21603
 72
       1
 10
20.899999999999999
 20
23.21603
 11
20.899999999999999
 21
21.483979999999999
 97
        0
 75
       0
 76
       2
 98
        1
 10
0.0
 20
0.0
  0
POLYLINE
  5
389
100
AcDbEntity
  8
Solder_Pad_1_Top
100
AcDb2dPolyline
 66
       1
 10
0.0
 20
0.0
 30
0.0
 70
       1
  0
VERTEX
  5
38A
100
AcDbEntity
  8
Solder_Pad_1_Top
100
AcDbVertex
100
AcDb2dVertex
 10
20.9
 20
23.21603
  0
VERTEX
  5
38B
100
AcDbEntity
  8
Solder_Pad_1_Top
100
AcDbVertex
100
AcDb2dVertex
 10
20.9
 20
23.21603
  0
VERTEX
  5
38C
100
AcDbEntity
  8
Solder_Pad_1_Top
100
AcDbVertex
100
AcDb2dVertex
 10
22.4
 20
24.08205
  0
VERTEX
  5
38D
100
AcDbEntity
  8
Solder_Pad_1_Top
100
AcDbVertex
100
AcDb2dVertex
 10
23.9
 20
23.21603
  0
VERTEX
  5
38E
100
AcDbEntity
  8
Solder_Pad_1_Top
100
AcDbVertex
100
AcDb2dVertex
 10
23.9
 20
21.48398
  0
VERTEX
  5
38F
100
AcDbEntity
  8
Solder_Pad_1_Top
100
AcDbVertex
100
AcDb2dVertex
 10
22.4
 20
20.61795
  0
VERTEX
  5
390
100
AcDbEntity
  8
Solder_Pad_1_Top
100
AcDbVertex
100
AcDb2dVertex
 10
20.9
 20
21.48398
  0
VERTEX
  5
391
100
AcDbEntity
  8
Solder_Pad_1_Top
100
AcDbVertex
100
AcDb2dVertex
 10
20.9
 20
23.21603
  0
SEQEND
  5
392
100
AcDbEntity
  8
Solder_Pad_1_Top
  0
HATCH
  5
393
100
AcDbEntity
  8
Solder_Pad_1_Top
100
AcDbHatch
 10
0.0
 20
0.0
 30
0.0
210
0.0
220
0.0
230
1.0
  2
SOLID
 70
       1
 71
       1
 91
        1
 92
        1
 93
        6
 72
       1
 10
13.9
 20
21.483979999999999
 11
15.4
 21
20.61795
 72
       1
 10
15.4
 20
20.61795
 11
16.899999999999999
 21
21.483979999999999
 72
       1
 10
16.899999999999999
 20
21.483979999999999
 11
16.899999999999999
 21
23.21603
 72
       1
 10
16.899999999999999
 20
23.21603
 11
15.4
 21
24.082049999999999
 72
       1
 10
15.4
 20
24.082049999999999
 11
13.9
 21
23.21603
 72
       1
 10
13.9
 20
23.21603
 11
13.9
 21
21.483979999999999
 97
        0
 75
       0
 76
       2
 98
        1
 10
0.0
 20
0.0
  0
POLYLINE
  5
394
100
AcDbEntity
  8
Solder_Pad_1_Top
100
AcDb2dPolyline
 66
       1
 10
0.0
 20
0.0
 30
0.0
 70
       1
  0
VERTEX
  5
395
100
AcDbEntity
  8
Solder_Pad_1_Top
100
AcDbVertex
100
AcDb2dVertex
 10
13.9
 20
23.21603
  0
VERTEX
  5
396
100
AcDbEntity
  8
Solder_Pad_1_Top
100
AcDbVertex
100
AcDb2dVertex
 10
13.9
 20
23.21603
  0
VERTEX
  5
397
100
AcDbEntity
  8
Solder_Pad_1_Top
100
AcDbVertex
100
AcDb2dVertex
 10
15.4
 20
24.08205
  0
VERTEX
  5
398
100
AcDbEntity
  8
Solder_Pad_1_Top
100
AcDbVertex
100
AcDb2dVertex
 10
16.9
 20
23.21603
  0
VERTEX
  5
399
100
AcDbEntity
  8
Solder_Pad_1_Top
100
AcDbVertex
100
AcDb2dVertex
 10
16.9
 20
21.48398
  0
VERTEX
  5
39A
100
AcDbEntity
  8
Solder_Pad_1_Top
100
AcDbVertex
100
AcDb2dVertex
 10
15.4
 20
20.61795
  0
VERTEX
  5
39B
100
AcDbEntity
  8
Solder_Pad_1_Top
100
AcDbVertex
100
AcDb2dVertex
 10
13.9
 20
21.48398
  0
VERTEX
  5
39C
100
AcDbEntity
  8
Solder_Pad_1_Top
100
AcDbVertex
100
AcDb2dVertex
 10
13.9
 20
23.21603
  0
SEQEND
  5
39D
100
AcDbEntity
  8
Solder_Pad_1_Top
  0
HATCH
  5
39E
100
AcDbEntity
  8
Solder_Pad_1_Top
100
AcDbHatch
 10
0.0
 20
0.0
 30
0.0
210
0.0
220
0.0
230
1.0
  2
SOLID
 70
       1
 71
       1
 91
        1
 92
        1
 93
        6
 72
       1
 10
6.9000000000000004
 20
3.4839799999999999
 11
8.4000000000000004
 21
2.61795
 72
       1
 10
8.4000000000000004
 20
2.61795
 11
9.9000000000000004
 21
3.4839799999999999
 72
       1
 10
9.9000000000000004
 20
3.4839799999999999
 11
9.9000000000000004
 21
5.2160299999999999
 72
       1
 10
9.9000000000000004
 20
5.2160299999999999
 11
8.4000000000000004
 21
6.0820499999999997
 72
       1
 10
8.4000000000000004
 20
6.0820499999999997
 11
6.9000000000000004
 21
5.2160299999999999
 72
       1
 10
6.9000000000000004
 20
5.2160299999999999
 11
6.9000000000000004
 21
3.4839799999999999
 97
        0
 75
       0
 76
       2
 98
        1
 10
0.0
 20
0.0
  0
POLYLINE
  5
39F
100
AcDbEntity
  8
Solder_Pad_1_Top
100
AcDb2dPolyline
 66
       1
 10
0.0
 20
0.0
 30
0.0
 70
       1
  0
VERTEX
  5
3A0
100
AcDbEntity
  8
Solder_Pad_1_Top
100
AcDbVertex
100
AcDb2dVertex
 10
6.9
 20
5.21603
  0
VERTEX
  5
3A1
100
AcDbEntity
  8
Solder_Pad_1_Top
100
AcDbVertex
100
AcDb2dVertex
 10
6.9
 20
5.21603
  0
VERTEX
  5
3A2
100
AcDbEntity
  8
Solder_Pad_1_Top
100
AcDbVertex
100
AcDb2dVertex
 10
8.4
 20
6.08205
  0
VERTEX
  5
3A3
100
AcDbEntity
  8
Solder_Pad_1_Top
100
AcDbVertex
100
AcDb2dVertex
 10
9.9
 20
5.21603
  0
VERTEX
  5
3A4
100
AcDbEntity
  8
Solder_Pad_1_Top
100
AcDbVertex
100
AcDb2dVertex
 10
9.9
 20
3.48398
  0
VERTEX
  5
3A5
100
AcDbEntity
  8
Solder_Pad_1_Top
100
AcDbVertex
100
AcDb2dVertex
 10
8.4
 20
2.61795
  0
VERTEX
  5
3A6
100
AcDbEntity
  8
Solder_Pad_1_Top
100
AcDbVertex
100
AcDb2dVertex
 10
6.9
 20
3.48398
  0
VERTEX
  5
3A7
100
AcDbEntity
  8
Solder_Pad_1_Top
100
AcDbVertex
100
AcDb2dVertex
 10
6.9
 20
5.21603
  0
SEQEND
  5
3A8
100
AcDbEntity
  8
Solder_Pad_1_Top
  0
HATCH
  5
3A9
100
AcDbEntity
  8
Solder_Pad_1_Top
100
AcDbHatch
 10
0.0
 20
0.0
 30
0.0
210
0.0
220
0.0
230
1.0
  2
SOLID
 70
       1
 71
       1
 91
        1
 92
        1
 93
        6
 72
       1
 10
5.1500000000000004
 20
6.4839799999999999
 11
6.6500000000000004
 21
5.6179500000000004
 72
       1
 10
6.6500000000000004
 20
5.6179500000000004
 11
8.1500000000000004
 21
6.4839799999999999
 72
       1
 10
8.1500000000000004
 20
6.4839799999999999
 11
8.1500000000000004
 21
8.2160299999999999
 72
       1
 10
8.1500000000000004
 20
8.2160299999999999
 11
6.6500000000000004
 21
9.0820500000000006
 72
       1
 10
6.6500000000000004
 20
9.0820500000000006
 11
5.1500000000000004
 21
8.2160299999999999
 72
       1
 10
5.1500000000000004
 20
8.2160299999999999
 11
5.1500000000000004
 21
6.4839799999999999
 97
        0
 75
       0
 76
       2
 98
        1
 10
0.0
 20
0.0
  0
POLYLINE
  5
3AA
100
AcDbEntity
  8
Solder_Pad_1_Top
100
AcDb2dPolyline
 66
       1
 10
0.0
 20
0.0
 30
0.0
 70
       1
  0
VERTEX
  5
3AB
100
AcDbEntity
  8
Solder_Pad_1_Top
100
AcDbVertex
100
AcDb2dVertex
 10
5.15
 20
8.21603
  0
VERTEX
  5
3AC
100
AcDbEntity
  8
Solder_Pad_1_Top
100
AcDbVertex
100
AcDb2dVertex
 10
5.15
 20
8.21603
  0
VERTEX
  5
3AD
100
AcDbEntity
  8
Solder_Pad_1_Top
100
AcDbVertex
100
AcDb2dVertex
 10
6.65
 20
9.08205
  0
VERTEX
  5
3AE
100
AcDbEntity
  8
Solder_Pad_1_Top
100
AcDbVertex
100
AcDb2dVertex
 10
8.15
 20
8.21603
  0
VERTEX
  5
3AF
100
AcDbEntity
  8
Solder_Pad_1_Top
100
AcDbVertex
100
AcDb2dVertex
 10
8.15
 20
6.48398
  0
VERTEX
  5
3B0
100
AcDbEntity
  8
Solder_Pad_1_Top
100
AcDbVertex
100
AcDb2dVertex
 10
6.65
 20
5.61795
  0
VERTEX
  5
3B1
100
AcDbEntity
  8
Solder_Pad_1_Top
100
AcDbVertex
100
AcDb2dVertex
 10
5.15
 20
6.48398
  0
VERTEX
  5
3B2
100
AcDbEntity
  8
Solder_Pad_1_Top
100
AcDbVertex
100
AcDb2dVertex
 10
5.15
 20
8.21603
  0
SEQEND
  5
3B3
100
AcDbEntity
  8
Solder_Pad_1_Top
  0
HATCH
  5
3B4
100
AcDbEntity
  8
Solder_Pad_1_Top
100
AcDbHatch
 10
0.0
 20
0.0
 30
0.0
210
0.0
220
0.0
230
1.0
  2
SOLID
 70
       1
 71
       1
 91
        1
 92
        1
 93
        6
 72
       1
 10
29.649999999999999
 20
6.4839799999999999
 11
31.149999999999999
 21
5.6179500000000004
 72
       1
 10
31.149999999999999
 20
5.6179500000000004
 11
32.649999999999999
 21
6.4839799999999999
 72
       1
 10
32.649999999999999
 20
6.4839799999999999
 11
32.649999999999999
 21
8.2160299999999999
 72
       1
 10
32.649999999999999
 20
8.2160299999999999
 11
31.149999999999999
 21
9.0820500000000006
 72
       1
 10
31.149999999999999
 20
9.0820500000000006
 11
29.649999999999999
 21
8.2160299999999999
 72
       1
 10
29.649999999999999
 20
8.2160299999999999
 11
29.649999999999999
 21
6.4839799999999999
 97
        0
 75
       0
 76
       2
 98
        1
 10
0.0
 20
0.0
  0
POLYLINE
  5
3B5
100
AcDbEntity
  8
Solder_Pad_1_Top
100
AcDb2dPolyline
 66
       1
 10
0.0
 20
0.0
 30
0.0
 70
       1
  0
VERTEX
  5
3B6
100
AcDbEntity
  8
Solder_Pad_1_Top
100
AcDbVertex
100
AcDb2dVertex
 10
29.65
 20
8.21603
  0
VERTEX
  5
3B7
100
AcDbEntity
  8
Solder_Pad_1_Top
100
AcDbVertex
100
AcDb2dVertex
 10
29.65
 20
8.21603
  0
VERTEX
  5
3B8
100
AcDbEntity
  8
Solder_Pad_1_Top
100
AcDbVertex
100
AcDb2dVertex
 10
31.15
 20
9.08205
  0
VERTEX
  5
3B9
100
AcDbEntity
  8
Solder_Pad_1_Top
100
AcDbVertex
100
AcDb2dVertex
 10
32.65
 20
8.21603
  0
VERTEX
  5
3BA
100
AcDbEntity
  8
Solder_Pad_1_Top
100
AcDbVertex
100
AcDb2dVertex
 10
32.65
 20
6.48398
  0
VERTEX
  5
3BB
100
AcDbEntity
  8
Solder_Pad_1_Top
100
AcDbVertex
100
AcDb2dVertex
 10
31.15
 20
5.61795
  0
VERTEX
  5
3BC
100
AcDbEntity
  8
Solder_Pad_1_Top
100
AcDbVertex
100
AcDb2dVertex
 10
29.65
 20
6.48398
  0
VERTEX
  5
3BD
100
AcDbEntity
  8
Solder_Pad_1_Top
100
AcDbVertex
100
AcDb2dVertex
 10
29.65
 20
8.21603
  0
SEQEND
  5
3BE
100
AcDbEntity
  8
Solder_Pad_1_Top
  0
HATCH
  5
3BF
100
AcDbEntity
  8
Solder_Pad_1_Top
100
AcDbHatch
 10
0.0
 20
0.0
 30
0.0
210
0.0
220
0.0
230
1.0
  2
SOLID
 70
       1
 71
       1
 91
        1
 92
        1
 93
        6
 72
       1
 10
6.9000000000000004
 20
21.483979999999999
 11
8.4000000000000004
 21
20.61795
 72
       1
 10
8.4000000000000004
 20
20.61795
 11
9.9000000000000004
 21
21.483979999999999
 72
       1
 10
9.9000000000000004
 20
21.483979999999999
 11
9.9000000000000004
 21
23.21603
 72
       1
 10
9.9000000000000004
 20
23.21603
 11
8.4000000000000004
 21
24.082049999999999
 72
       1
 10
8.4000000000000004
 20
24.082049999999999
 11
6.9000000000000004
 21
23.21603
 72
       1
 10
6.9000000000000004
 20
23.21603
 11
6.9000000000000004
 21
21.483979999999999
 97
        0
 75
       0
 76
       2
 98
        1
 10
0.0
 20
0.0
  0
POLYLINE
  5
3C0
100
AcDbEntity
  8
Solder_Pad_1_Top
100
AcDb2dPolyline
 66
       1
 10
0.0
 20
0.0
 30
0.0
 70
       1
  0
VERTEX
  5
3C1
100
AcDbEntity
  8
Solder_Pad_1_Top
100
AcDbVertex
100
AcDb2dVertex
 10
6.9
 20
23.21603
  0
VERTEX
  5
3C2
100
AcDbEntity
  8
Solder_Pad_1_Top
100
AcDbVertex
100
AcDb2dVertex
 10
6.9
 20
23.21603
  0
VERTEX
  5
3C3
100
AcDbEntity
  8
Solder_Pad_1_Top
100
AcDbVertex
100
AcDb2dVertex
 10
8.4
 20
24.08205
  0
VERTEX
  5
3C4
100
AcDbEntity
  8
Solder_Pad_1_Top
100
AcDbVertex
100
AcDb2dVertex
 10
9.9
 20
23.21603
  0
VERTEX
  5
3C5
100
AcDbEntity
  8
Solder_Pad_1_Top
100
AcDbVertex
100
AcDb2dVertex
 10
9.9
 20
21.48398
  0
VERTEX
  5
3C6
100
AcDbEntity
  8
Solder_Pad_1_Top
100
AcDbVertex
100
AcDb2dVertex
 10
8.4
 20
20.61795
  0
VERTEX
  5
3C7
100
AcDbEntity
  8
Solder_Pad_1_Top
100
AcDbVertex
100
AcDb2dVertex
 10
6.9
 20
21.48398
  0
VERTEX
  5
3C8
100
AcDbEntity
  8
Solder_Pad_1_Top
100
AcDbVertex
100
AcDb2dVertex
 10
6.9
 20
23.21603
  0
SEQEND
  5
3C9
100
AcDbEntity
  8
Solder_Pad_1_Top
  0
HATCH
  5
3CA
100
AcDbEntity
  8
Solder_Pad_1_Top
100
AcDbHatch
 10
0.0
 20
0.0
 30
0.0
210
0.0
220
0.0
230
1.0
  2
SOLID
 70
       1
 71
       1
 91
        1
 92
        1
 93
        6
 72
       1
 10
17.399999999999999
 20
21.483979999999999
 11
18.899999999999999
 21
20.61795
 72
       1
 10
18.899999999999999
 20
20.61795
 11
20.399999999999999
 21
21.483979999999999
 72
       1
 10
20.399999999999999
 20
21.483979999999999
 11
20.399999999999999
 21
23.21603
 72
       1
 10
20.399999999999999
 20
23.21603
 11
18.899999999999999
 21
24.082049999999999
 72
       1
 10
18.899999999999999
 20
24.082049999999999
 11
17.399999999999999
 21
23.21603
 72
       1
 10
17.399999999999999
 20
23.21603
 11
17.399999999999999
 21
21.483979999999999
 97
        0
 75
       0
 76
       2
 98
        1
 10
0.0
 20
0.0
  0
POLYLINE
  5
3CB
100
AcDbEntity
  8
Solder_Pad_1_Top
100
AcDb2dPolyline
 66
       1
 10
0.0
 20
0.0
 30
0.0
 70
       1
  0
VERTEX
  5
3CC
100
AcDbEntity
  8
Solder_Pad_1_Top
100
AcDbVertex
100
AcDb2dVertex
 10
17.4
 20
23.21603
  0
VERTEX
  5
3CD
100
AcDbEntity
  8
Solder_Pad_1_Top
100
AcDbVertex
100
AcDb2dVertex
 10
17.4
 20
23.21603
  0
VERTEX
  5
3CE
100
AcDbEntity
  8
Solder_Pad_1_Top
100
AcDbVertex
100
AcDb2dVertex
 10
18.9
 20
24.08205
  0
VERTEX
  5
3CF
100
AcDbEntity
  8
Solder_Pad_1_Top
100
AcDbVertex
100
AcDb2dVertex
 10
20.4
 20
23.21603
  0
VERTEX
  5
3D0
100
AcDbEntity
  8
Solder_Pad_1_Top
100
AcDbVertex
100
AcDb2dVertex
 10
20.4
 20
21.48398
  0
VERTEX
  5
3D1
100
AcDbEntity
  8
Solder_Pad_1_Top
100
AcDbVertex
100
AcDb2dVertex
 10
18.9
 20
20.61795
  0
VERTEX
  5
3D2
100
AcDbEntity
  8
Solder_Pad_1_Top
100
AcDbVertex
100
AcDb2dVertex
 10
17.4
 20
21.48398
  0
VERTEX
  5
3D3
100
AcDbEntity
  8
Solder_Pad_1_Top
100
AcDbVertex
100
AcDb2dVertex
 10
17.4
 20
23.21603
  0
SEQEND
  5
3D4
100
AcDbEntity
  8
Solder_Pad_1_Top
  0
HATCH
  5
3D5
100
AcDbEntity
  8
Solder_Pad_1_Top
100
AcDbHatch
 10
0.0
 20
0.0
 30
0.0
210
0.0
220
0.0
230
1.0
  2
SOLID
 70
       1
 71
       1
 91
        1
 92
        1
 93
        6
 72
       1
 10
5.1500000000000004
 20
12.483980000000001
 11
6.6500000000000004
 21
11.61795
 72
       1
 10
6.6500000000000004
 20
11.61795
 11
8.1500000000000004
 21
12.483980000000001
 72
       1
 10
8.1500000000000004
 20
12.483980000000001
 11
8.1500000000000004
 21
14.21603
 72
       1
 10
8.1500000000000004
 20
14.21603
 11
6.6500000000000004
 21
15.082050000000001
 72
       1
 10
6.6500000000000004
 20
15.082050000000001
 11
5.1500000000000004
 21
14.21603
 72
       1
 10
5.1500000000000004
 20
14.21603
 11
5.1500000000000004
 21
12.483980000000001
 97
        0
 75
       0
 76
       2
 98
        1
 10
0.0
 20
0.0
  0
POLYLINE
  5
3D6
100
AcDbEntity
  8
Solder_Pad_1_Top
100
AcDb2dPolyline
 66
       1
 10
0.0
 20
0.0
 30
0.0
 70
       1
  0
VERTEX
  5
3D7
100
AcDbEntity
  8
Solder_Pad_1_Top
100
AcDbVertex
100
AcDb2dVertex
 10
5.15
 20
14.21603
  0
VERTEX
  5
3D8
100
AcDbEntity
  8
Solder_Pad_1_Top
100
AcDbVertex
100
AcDb2dVertex
 10
5.15
 20
14.21603
  0
VERTEX
  5
3D9
100
AcDbEntity
  8
Solder_Pad_1_Top
100
AcDbVertex
100
AcDb2dVertex
 10
6.65
 20
15.08205
  0
VERTEX
  5
3DA
100
AcDbEntity
  8
Solder_Pad_1_Top
100
AcDbVertex
100
AcDb2dVertex
 10
8.15
 20
14.21603
  0
VERTEX
  5
3DB
100
AcDbEntity
  8
Solder_Pad_1_Top
100
AcDbVertex
100
AcDb2dVertex
 10
8.15
 20
12.48398
  0
VERTEX
  5
3DC
100
AcDbEntity
  8
Solder_Pad_1_Top
100
AcDbVertex
100
AcDb2dVertex
 10
6.65
 20
11.61795
  0
VERTEX
  5
3DD
100
AcDbEntity
  8
Solder_Pad_1_Top
100
AcDbVertex
100
AcDb2dVertex
 10
5.15
 20
12.48398
  0
VERTEX
  5
3DE
100
AcDbEntity
  8
Solder_Pad_1_Top
100
AcDbVertex
100
AcDb2dVertex
 10
5.15
 20
14.21603
  0
SEQEND
  5
3DF
100
AcDbEntity
  8
Solder_Pad_1_Top
  0
HATCH
  5
3E0
100
AcDbEntity
  8
Solder_Pad_1_Top
100
AcDbHatch
 10
0.0
 20
0.0
 30
0.0
210
0.0
220
0.0
230
1.0
  2
SOLID
 70
       1
 71
       1
 91
        1
 92
        1
 93
        6
 72
       1
 10
24.399999999999999
 20
3.4839799999999999
 11
25.899999999999999
 21
2.61795
 72
       1
 10
25.899999999999999
 20
2.61795
 11
27.399999999999999
 21
3.4839799999999999
 72
       1
 10
27.399999999999999
 20
3.4839799999999999
 11
27.399999999999999
 21
5.2160299999999999
 72
       1
 10
27.399999999999999
 20
5.2160299999999999
 11
25.899999999999999
 21
6.0820499999999997
 72
       1
 10
25.899999999999999
 20
6.0820499999999997
 11
24.399999999999999
 21
5.2160299999999999
 72
       1
 10
24.399999999999999
 20
5.2160299999999999
 11
24.399999999999999
 21
3.4839799999999999
 97
        0
 75
       0
 76
       2
 98
        1
 10
0.0
 20
0.0
  0
POLYLINE
  5
3E1
100
AcDbEntity
  8
Solder_Pad_1_Top
100
AcDb2dPolyline
 66
       1
 10
0.0
 20
0.0
 30
0.0
 70
       1
  0
VERTEX
  5
3E2
100
AcDbEntity
  8
Solder_Pad_1_Top
100
AcDbVertex
100
AcDb2dVertex
 10
24.4
 20
5.21603
  0
VERTEX
  5
3E3
100
AcDbEntity
  8
Solder_Pad_1_Top
100
AcDbVertex
100
AcDb2dVertex
 10
24.4
 20
5.21603
  0
VERTEX
  5
3E4
100
AcDbEntity
  8
Solder_Pad_1_Top
100
AcDbVertex
100
AcDb2dVertex
 10
25.9
 20
6.08205
  0
VERTEX
  5
3E5
100
AcDbEntity
  8
Solder_Pad_1_Top
100
AcDbVertex
100
AcDb2dVertex
 10
27.4
 20
5.21603
  0
VERTEX
  5
3E6
100
AcDbEntity
  8
Solder_Pad_1_Top
100
AcDbVertex
100
AcDb2dVertex
 10
27.4
 20
3.48398
  0
VERTEX
  5
3E7
100
AcDbEntity
  8
Solder_Pad_1_Top
100
AcDbVertex
100
AcDb2dVertex
 10
25.9
 20
2.61795
  0
VERTEX
  5
3E8
100
AcDbEntity
  8
Solder_Pad_1_Top
100
AcDbVertex
100
AcDb2dVertex
 10
24.4
 20
3.48398
  0
VERTEX
  5
3E9
100
AcDbEntity
  8
Solder_Pad_1_Top
100
AcDbVertex
100
AcDb2dVertex
 10
24.4
 20
5.21603
  0
SEQEND
  5
3EA
100
AcDbEntity
  8
Solder_Pad_1_Top
  0
HATCH
  5
3EB
100
AcDbEntity
  8
Solder_Pad_1_Top
100
AcDbHatch
 10
0.0
 20
0.0
 30
0.0
210
0.0
220
0.0
230
1.0
  2
SOLID
 70
       1
 71
       1
 91
        1
 92
        1
 93
        6
 72
       1
 10
3.3999999999999999
 20
9.43398
 11
4.9000000000000004
 21
8.5679499999999997
 72
       1
 10
4.9000000000000004
 20
8.5679499999999997
 11
6.4000000000000004
 21
9.43398
 72
       1
 10
6.4000000000000004
 20
9.43398
 11
6.4000000000000004
 21
11.166029999999999
 72
       1
 10
6.4000000000000004
 20
11.166029999999999
 11
4.9000000000000004
 21
12.03205
 72
       1
 10
4.9000000000000004
 20
12.03205
 11
3.3999999999999999
 21
11.166029999999999
 72
       1
 10
3.3999999999999999
 20
11.166029999999999
 11
3.3999999999999999
 21
9.43398
 97
        0
 75
       0
 76
       2
 98
        1
 10
0.0
 20
0.0
  0
POLYLINE
  5
3EC
100
AcDbEntity
  8
Solder_Pad_1_Top
100
AcDb2dPolyline
 66
       1
 10
0.0
 20
0.0
 30
0.0
 70
       1
  0
VERTEX
  5
3ED
100
AcDbEntity
  8
Solder_Pad_1_Top
100
AcDbVertex
100
AcDb2dVertex
 10
3.4
 20
11.16603
  0
VERTEX
  5
3EE
100
AcDbEntity
  8
Solder_Pad_1_Top
100
AcDbVertex
100
AcDb2dVertex
 10
3.4
 20
11.16603
  0
VERTEX
  5
3EF
100
AcDbEntity
  8
Solder_Pad_1_Top
100
AcDbVertex
100
AcDb2dVertex
 10
4.9
 20
12.03205
  0
VERTEX
  5
3F0
100
AcDbEntity
  8
Solder_Pad_1_Top
100
AcDbVertex
100
AcDb2dVertex
 10
6.4
 20
11.16603
  0
VERTEX
  5
3F1
100
AcDbEntity
  8
Solder_Pad_1_Top
100
AcDbVertex
100
AcDb2dVertex
 10
6.4
 20
9.43398
  0
VERTEX
  5
3F2
100
AcDbEntity
  8
Solder_Pad_1_Top
100
AcDbVertex
100
AcDb2dVertex
 10
4.9
 20
8.56795
  0
VERTEX
  5
3F3
100
AcDbEntity
  8
Solder_Pad_1_Top
100
AcDbVertex
100
AcDb2dVertex
 10
3.4
 20
9.43398
  0
VERTEX
  5
3F4
100
AcDbEntity
  8
Solder_Pad_1_Top
100
AcDbVertex
100
AcDb2dVertex
 10
3.4
 20
11.16603
  0
SEQEND
  5
3F5
100
AcDbEntity
  8
Solder_Pad_1_Top
  0
HATCH
  5
3F6
100
AcDbEntity
  8
Solder_Pad_1_Top
100
AcDbHatch
 10
0.0
 20
0.0
 30
0.0
210
0.0
220
0.0
230
1.0
  2
SOLID
 70
       1
 71
       1
 91
        1
 92
        1
 93
        6
 72
       1
 10
8.6500000000000004
 20
18.483979999999999
 11
10.15
 21
17.61795
 72
       1
 10
10.15
 20
17.61795
 11
11.65
 21
18.483979999999999
 72
       1
 10
11.65
 20
18.483979999999999
 11
11.65
 21
20.21603
 72
       1
 10
11.65
 20
20.21603
 11
10.15
 21
21.082049999999999
 72
       1
 10
10.15
 20
21.082049999999999
 11
8.6500000000000004
 21
20.21603
 72
       1
 10
8.6500000000000004
 20
20.21603
 11
8.6500000000000004
 21
18.483979999999999
 97
        0
 75
       0
 76
       2
 98
        1
 10
0.0
 20
0.0
  0
POLYLINE
  5
3F7
100
AcDbEntity
  8
Solder_Pad_1_Top
100
AcDb2dPolyline
 66
       1
 10
0.0
 20
0.0
 30
0.0
 70
       1
  0
VERTEX
  5
3F8
100
AcDbEntity
  8
Solder_Pad_1_Top
100
AcDbVertex
100
AcDb2dVertex
 10
8.65
 20
20.21603
  0
VERTEX
  5
3F9
100
AcDbEntity
  8
Solder_Pad_1_Top
100
AcDbVertex
100
AcDb2dVertex
 10
8.65
 20
20.21603
  0
VERTEX
  5
3FA
100
AcDbEntity
  8
Solder_Pad_1_Top
100
AcDbVertex
100
AcDb2dVertex
 10
10.15
 20
21.08205
  0
VERTEX
  5
3FB
100
AcDbEntity
  8
Solder_Pad_1_Top
100
AcDbVertex
100
AcDb2dVertex
 10
11.65
 20
20.21603
  0
VERTEX
  5
3FC
100
AcDbEntity
  8
Solder_Pad_1_Top
100
AcDbVertex
100
AcDb2dVertex
 10
11.65
 20
18.48398
  0
VERTEX
  5
3FD
100
AcDbEntity
  8
Solder_Pad_1_Top
100
AcDbVertex
100
AcDb2dVertex
 10
10.15
 20
17.61795
  0
VERTEX
  5
3FE
100
AcDbEntity
  8
Solder_Pad_1_Top
100
AcDbVertex
100
AcDb2dVertex
 10
8.65
 20
18.48398
  0
VERTEX
  5
3FF
100
AcDbEntity
  8
Solder_Pad_1_Top
100
AcDbVertex
100
AcDb2dVertex
 10
8.65
 20
20.21603
  0
SEQEND
  5
400
100
AcDbEntity
  8
Solder_Pad_1_Top
  0
HATCH
  5
401
100
AcDbEntity
  8
Solder_Pad_1_Top
100
AcDbHatch
 10
0.0
 20
0.0
 30
0.0
210
0.0
220
0.0
230
1.0
  2
SOLID
 70
       1
 71
       1
 91
        1
 92
        1
 93
        6
 72
       1
 10
17.399999999999999
 20
3.4839799999999999
 11
18.899999999999999
 21
2.61795
 72
       1
 10
18.899999999999999
 20
2.61795
 11
20.399999999999999
 21
3.4839799999999999
 72
       1
 10
20.399999999999999
 20
3.4839799999999999
 11
20.399999999999999
 21
5.2160299999999999
 72
       1
 10
20.399999999999999
 20
5.2160299999999999
 11
18.899999999999999
 21
6.0820499999999997
 72
       1
 10
18.899999999999999
 20
6.0820499999999997
 11
17.399999999999999
 21
5.2160299999999999
 72
       1
 10
17.399999999999999
 20
5.2160299999999999
 11
17.399999999999999
 21
3.4839799999999999
 97
        0
 75
       0
 76
       2
 98
        1
 10
0.0
 20
0.0
  0
POLYLINE
  5
402
100
AcDbEntity
  8
Solder_Pad_1_Top
100
AcDb2dPolyline
 66
       1
 10
0.0
 20
0.0
 30
0.0
 70
       1
  0
VERTEX
  5
403
100
AcDbEntity
  8
Solder_Pad_1_Top
100
AcDbVertex
100
AcDb2dVertex
 10
17.4
 20
5.21603
  0
VERTEX
  5
404
100
AcDbEntity
  8
Solder_Pad_1_Top
100
AcDbVertex
100
AcDb2dVertex
 10
17.4
 20
5.21603
  0
VERTEX
  5
405
100
AcDbEntity
  8
Solder_Pad_1_Top
100
AcDbVertex
100
AcDb2dVertex
 10
18.9
 20
6.08205
  0
VERTEX
  5
406
100
AcDbEntity
  8
Solder_Pad_1_Top
100
AcDbVertex
100
AcDb2dVertex
 10
20.4
 20
5.21603
  0
VERTEX
  5
407
100
AcDbEntity
  8
Solder_Pad_1_Top
100
AcDbVertex
100
AcDb2dVertex
 10
20.4
 20
3.48398
  0
VERTEX
  5
408
100
AcDbEntity
  8
Solder_Pad_1_Top
100
AcDbVertex
100
AcDb2dVertex
 10
18.9
 20
2.61795
  0
VERTEX
  5
409
100
AcDbEntity
  8
Solder_Pad_1_Top
100
AcDbVertex
100
AcDb2dVertex
 10
17.4
 20
3.48398
  0
VERTEX
  5
40A
100
AcDbEntity
  8
Solder_Pad_1_Top
100
AcDbVertex
100
AcDb2dVertex
 10
17.4
 20
5.21603
  0
SEQEND
  5
40B
100
AcDbEntity
  8
Solder_Pad_1_Top
  0
HATCH
  5
40C
100
AcDbEntity
  8
Solder_Pad_1_Top
100
AcDbHatch
 10
0.0
 20
0.0
 30
0.0
210
0.0
220
0.0
230
1.0
  2
SOLID
 70
       1
 71
       1
 91
        1
 92
        1
 93
        6
 72
       1
 10
20.899999999999999
 20
3.4839799999999999
 11
22.399999999999999
 21
2.61795
 72
       1
 10
22.399999999999999
 20
2.61795
 11
23.899999999999999
 21
3.4839799999999999
 72
       1
 10
23.899999999999999
 20
3.4839799999999999
 11
23.899999999999999
 21
5.2160299999999999
 72
       1
 10
23.899999999999999
 20
5.2160299999999999
 11
22.399999999999999
 21
6.0820499999999997
 72
       1
 10
22.399999999999999
 20
6.0820499999999997
 11
20.899999999999999
 21
5.2160299999999999
 72
       1
 10
20.899999999999999
 20
5.2160299999999999
 11
20.899999999999999
 21
3.4839799999999999
 97
        0
 75
       0
 76
       2
 98
        1
 10
0.0
 20
0.0
  0
POLYLINE
  5
40D
100
AcDbEntity
  8
Solder_Pad_1_Top
100
AcDb2dPolyline
 66
       1
 10
0.0
 20
0.0
 30
0.0
 70
       1
  0
VERTEX
  5
40E
100
AcDbEntity
  8
Solder_Pad_1_Top
100
AcDbVertex
100
AcDb2dVertex
 10
20.9
 20
5.21603
  0
VERTEX
  5
40F
100
AcDbEntity
  8
Solder_Pad_1_Top
100
AcDbVertex
100
AcDb2dVertex
 10
20.9
 20
5.21603
  0
VERTEX
  5
410
100
AcDbEntity
  8
Solder_Pad_1_Top
100
AcDbVertex
100
AcDb2dVertex
 10
22.4
 20
6.08205
  0
VERTEX
  5
411
100
AcDbEntity
  8
Solder_Pad_1_Top
100
AcDbVertex
100
AcDb2dVertex
 10
23.9
 20
5.21603
  0
VERTEX
  5
412
100
AcDbEntity
  8
Solder_Pad_1_Top
100
AcDbVertex
100
AcDb2dVertex
 10
23.9
 20
3.48398
  0
VERTEX
  5
413
100
AcDbEntity
  8
Solder_Pad_1_Top
100
AcDbVertex
100
AcDb2dVertex
 10
22.4
 20
2.61795
  0
VERTEX
  5
414
100
AcDbEntity
  8
Solder_Pad_1_Top
100
AcDbVertex
100
AcDb2dVertex
 10
20.9
 20
3.48398
  0
VERTEX
  5
415
100
AcDbEntity
  8
Solder_Pad_1_Top
100
AcDbVertex
100
AcDb2dVertex
 10
20.9
 20
5.21603
  0
SEQEND
  5
416
100
AcDbEntity
  8
Solder_Pad_1_Top
  0
HATCH
  5
417
100
AcDbEntity
  8
Solder_Pad_1_Top
100
AcDbHatch
 10
0.0
 20
0.0
 30
0.0
210
0.0
220
0.0
230
1.0
  2
SOLID
 70
       1
 71
       1
 91
        1
 92
        1
 93
        6
 72
       1
 10
1.6499999999999999
 20
12.483980000000001
 11
3.1499999999999999
 21
11.61795
 72
       1
 10
3.1499999999999999
 20
11.61795
 11
4.6500000000000004
 21
12.483980000000001
 72
       1
 10
4.6500000000000004
 20
12.483980000000001
 11
4.6500000000000004
 21
14.21603
 72
       1
 10
4.6500000000000004
 20
14.21603
 11
3.1499999999999999
 21
15.082050000000001
 72
       1
 10
3.1499999999999999
 20
15.082050000000001
 11
1.6499999999999999
 21
14.21603
 72
       1
 10
1.6499999999999999
 20
14.21603
 11
1.6499999999999999
 21
12.483980000000001
 97
        0
 75
       0
 76
       2
 98
        1
 10
0.0
 20
0.0
  0
POLYLINE
  5
418
100
AcDbEntity
  8
Solder_Pad_1_Top
100
AcDb2dPolyline
 66
       1
 10
0.0
 20
0.0
 30
0.0
 70
       1
  0
VERTEX
  5
419
100
AcDbEntity
  8
Solder_Pad_1_Top
100
AcDbVertex
100
AcDb2dVertex
 10
1.65
 20
14.21603
  0
VERTEX
  5
41A
100
AcDbEntity
  8
Solder_Pad_1_Top
100
AcDbVertex
100
AcDb2dVertex
 10
1.65
 20
14.21603
  0
VERTEX
  5
41B
100
AcDbEntity
  8
Solder_Pad_1_Top
100
AcDbVertex
100
AcDb2dVertex
 10
3.15
 20
15.08205
  0
VERTEX
  5
41C
100
AcDbEntity
  8
Solder_Pad_1_Top
100
AcDbVertex
100
AcDb2dVertex
 10
4.65
 20
14.21603
  0
VERTEX
  5
41D
100
AcDbEntity
  8
Solder_Pad_1_Top
100
AcDbVertex
100
AcDb2dVertex
 10
4.65
 20
12.48398
  0
VERTEX
  5
41E
100
AcDbEntity
  8
Solder_Pad_1_Top
100
AcDbVertex
100
AcDb2dVertex
 10
3.15
 20
11.61795
  0
VERTEX
  5
41F
100
AcDbEntity
  8
Solder_Pad_1_Top
100
AcDbVertex
100
AcDb2dVertex
 10
1.65
 20
12.48398
  0
VERTEX
  5
420
100
AcDbEntity
  8
Solder_Pad_1_Top
100
AcDbVertex
100
AcDb2dVertex
 10
1.65
 20
14.21603
  0
SEQEND
  5
421
100
AcDbEntity
  8
Solder_Pad_1_Top
  0
HATCH
  5
422
100
AcDbEntity
  8
Solder_Pad_1_Top
100
AcDbHatch
 10
0.0
 20
0.0
 30
0.0
210
0.0
220
0.0
230
1.0
  2
SOLID
 70
       1
 71
       1
 91
        1
 92
        1
 93
        7
 72
       1
 10
1.6499999999999999
 20
0.48398
 11
2.48827
 21
0.0
 72
       1
 10
2.48827
 20
0.0
 11
3.8117299999999998
 21
0.0
 72
       1
 10
3.8117299999999998
 20
0.0
 11
4.6500000000000004
 21
0.48398
 72
       1
 10
4.6500000000000004
 20
0.48398
 11
4.6500000000000004
 21
2.2160299999999999
 72
       1
 10
4.6500000000000004
 20
2.2160299999999999
 11
3.1499999999999999
 21
3.0820500000000002
 72
       1
 10
3.1499999999999999
 20
3.0820500000000002
 11
1.6499999999999999
 21
2.2160299999999999
 72
       1
 10
1.6499999999999999
 20
2.2160299999999999
 11
1.6499999999999999
 21
0.48398
 97
        0
 75
       0
 76
       2
 98
        1
 10
0.0
 20
0.0
  0
POLYLINE
  5
423
100
AcDbEntity
  8
Solder_Pad_1_Top
100
AcDb2dPolyline
 66
       1
 10
0.0
 20
0.0
 30
0.0
 70
       1
  0
VERTEX
  5
424
100
AcDbEntity
  8
Solder_Pad_1_Top
100
AcDbVertex
100
AcDb2dVertex
 10
3.81173
 20
0.0
  0
VERTEX
  5
425
100
AcDbEntity
  8
Solder_Pad_1_Top
100
AcDbVertex
100
AcDb2dVertex
 10
3.81173
 20
0.0
  0
VERTEX
  5
426
100
AcDbEntity
  8
Solder_Pad_1_Top
100
AcDbVertex
100
AcDb2dVertex
 10
4.65
 20
0.48398
  0
VERTEX
  5
427
100
AcDbEntity
  8
Solder_Pad_1_Top
100
AcDbVertex
100
AcDb2dVertex
 10
4.65
 20
2.21603
  0
VERTEX
  5
428
100
AcDbEntity
  8
Solder_Pad_1_Top
100
AcDbVertex
100
AcDb2dVertex
 10
3.15
 20
3.08205
  0
VERTEX
  5
429
100
AcDbEntity
  8
Solder_Pad_1_Top
100
AcDbVertex
100
AcDb2dVertex
 10
1.65
 20
2.21603
  0
VERTEX
  5
42A
100
AcDbEntity
  8
Solder_Pad_1_Top
100
AcDbVertex
100
AcDb2dVertex
 10
1.65
 20
0.48398
  0
VERTEX
  5
42B
100
AcDbEntity
  8
Solder_Pad_1_Top
100
AcDbVertex
100
AcDb2dVertex
 10
2.48827
 20
0.0
  0
VERTEX
  5
42C
100
AcDbEntity
  8
Solder_Pad_1_Top
100
AcDbVertex
100
AcDb2dVertex
 10
3.81173
 20
0.0
  0
SEQEND
  5
42D
100
AcDbEntity
  8
Solder_Pad_1_Top
  0
HATCH
  5
42E
100
AcDbEntity
  8
Solder_Pad_1_Top
100
AcDbHatch
 10
0.0
 20
0.0
 30
0.0
210
0.0
220
0.0
230
1.0
  2
SOLID
 70
       1
 71
       1
 91
        1
 92
        1
 93
        6
 72
       1
 10
27.899999999999999
 20
21.483979999999999
 11
29.399999999999999
 21
20.61795
 72
       1
 10
29.399999999999999
 20
20.61795
 11
30.899999999999999
 21
21.483979999999999
 72
       1
 10
30.899999999999999
 20
21.483979999999999
 11
30.899999999999999
 21
23.21603
 72
       1
 10
30.899999999999999
 20
23.21603
 11
29.399999999999999
 21
24.082049999999999
 72
       1
 10
29.399999999999999
 20
24.082049999999999
 11
27.899999999999999
 21
23.21603
 72
       1
 10
27.899999999999999
 20
23.21603
 11
27.899999999999999
 21
21.483979999999999
 97
        0
 75
       0
 76
       2
 98
        1
 10
0.0
 20
0.0
  0
POLYLINE
  5
42F
100
AcDbEntity
  8
Solder_Pad_1_Top
100
AcDb2dPolyline
 66
       1
 10
0.0
 20
0.0
 30
0.0
 70
       1
  0
VERTEX
  5
430
100
AcDbEntity
  8
Solder_Pad_1_Top
100
AcDbVertex
100
AcDb2dVertex
 10
27.9
 20
23.21603
  0
VERTEX
  5
431
100
AcDbEntity
  8
Solder_Pad_1_Top
100
AcDbVertex
100
AcDb2dVertex
 10
27.9
 20
23.21603
  0
VERTEX
  5
432
100
AcDbEntity
  8
Solder_Pad_1_Top
100
AcDbVertex
100
AcDb2dVertex
 10
29.4
 20
24.08205
  0
VERTEX
  5
433
100
AcDbEntity
  8
Solder_Pad_1_Top
100
AcDbVertex
100
AcDb2dVertex
 10
30.9
 20
23.21603
  0
VERTEX
  5
434
100
AcDbEntity
  8
Solder_Pad_1_Top
100
AcDbVertex
100
AcDb2dVertex
 10
30.9
 20
21.48398
  0
VERTEX
  5
435
100
AcDbEntity
  8
Solder_Pad_1_Top
100
AcDbVertex
100
AcDb2dVertex
 10
29.4
 20
20.61795
  0
VERTEX
  5
436
100
AcDbEntity
  8
Solder_Pad_1_Top
100
AcDbVertex
100
AcDb2dVertex
 10
27.9
 20
21.48398
  0
VERTEX
  5
437
100
AcDbEntity
  8
Solder_Pad_1_Top
100
AcDbVertex
100
AcDb2dVertex
 10
27.9
 20
23.21603
  0
SEQEND
  5
438
100
AcDbEntity
  8
Solder_Pad_1_Top
  0
HATCH
  5
439
100
AcDbEntity
  8
Solder_Pad_1_Top
100
AcDbHatch
 10
0.0
 20
0.0
 30
0.0
210
0.0
220
0.0
230
1.0
  2
SOLID
 70
       1
 71
       1
 91
        1
 92
        1
 93
        5
 72
       1
 10
0.0
 20
0.0
 11
0.31173
 21
0.0
 72
       1
 10
0.31173
 20
0.0
 11
1.1499999999999999
 21
0.48398
 72
       1
 10
1.1499999999999999
 20
0.48398
 11
1.1499999999999999
 21
2.2160299999999999
 72
       1
 10
1.1499999999999999
 20
2.2160299999999999
 11
0.0
 21
2.8799800000000002
 72
       1
 10
0.0
 20
2.8799800000000002
 11
0.0
 21
0.0
 97
        0
 75
       0
 76
       2
 98
        1
 10
0.0
 20
0.0
  0
POLYLINE
  5
43A
100
AcDbEntity
  8
Solder_Pad_1_Top
100
AcDb2dPolyline
 66
       1
 10
0.0
 20
0.0
 30
0.0
 70
       1
  0
VERTEX
  5
43B
100
AcDbEntity
  8
Solder_Pad_1_Top
100
AcDbVertex
100
AcDb2dVertex
 10
0.31173
 20
0.0
  0
VERTEX
  5
43C
100
AcDbEntity
  8
Solder_Pad_1_Top
100
AcDbVertex
100
AcDb2dVertex
 10
0.31173
 20
0.0
  0
VERTEX
  5
43D
100
AcDbEntity
  8
Solder_Pad_1_Top
100
AcDbVertex
100
AcDb2dVertex
 10
1.15
 20
0.48398
  0
VERTEX
  5
43E
100
AcDbEntity
  8
Solder_Pad_1_Top
100
AcDbVertex
100
AcDb2dVertex
 10
1.15
 20
2.21603
  0
VERTEX
  5
43F
100
AcDbEntity
  8
Solder_Pad_1_Top
100
AcDbVertex
100
AcDb2dVertex
 10
0.0
 20
2.87998
  0
VERTEX
  5
440
100
AcDbEntity
  8
Solder_Pad_1_Top
100
AcDbVertex
100
AcDb2dVertex
 10
0.0
 20
0.0
  0
VERTEX
  5
441
100
AcDbEntity
  8
Solder_Pad_1_Top
100
AcDbVertex
100
AcDb2dVertex
 10
0.31173
 20
0.0
  0
SEQEND
  5
442
100
AcDbEntity
  8
Solder_Pad_1_Top
  0
HATCH
  5
443
100
AcDbEntity
  8
Solder_Pad_1_Top
100
AcDbHatch
 10
0.0
 20
0.0
 30
0.0
210
0.0
220
0.0
230
1.0
  2
SOLID
 70
       1
 71
       1
 91
        1
 92
        1
 93
        4
 72
       1
 10
33.149999999999999
 20
18.483979999999999
 11
34.299999999999997
 21
17.82002
 72
       1
 10
34.299999999999997
 20
17.82002
 11
34.299999999999997
 21
20.87998
 72
       1
 10
34.299999999999997
 20
20.87998
 11
33.149999999999999
 21
20.21603
 72
       1
 10
33.149999999999999
 20
20.21603
 11
33.149999999999999
 21
18.483979999999999
 97
        0
 75
       0
 76
       2
 98
        1
 10
0.0
 20
0.0
  0
POLYLINE
  5
444
100
AcDbEntity
  8
Solder_Pad_1_Top
100
AcDb2dPolyline
 66
       1
 10
0.0
 20
0.0
 30
0.0
 70
       1
  0
VERTEX
  5
445
100
AcDbEntity
  8
Solder_Pad_1_Top
100
AcDbVertex
100
AcDb2dVertex
 10
34.3
 20
20.87998
  0
VERTEX
  5
446
100
AcDbEntity
  8
Solder_Pad_1_Top
100
AcDbVertex
100
AcDb2dVertex
 10
34.3
 20
20.87998
  0
VERTEX
  5
447
100
AcDbEntity
  8
Solder_Pad_1_Top
100
AcDbVertex
100
AcDb2dVertex
 10
33.15
 20
20.21603
  0
VERTEX
  5
448
100
AcDbEntity
  8
Solder_Pad_1_Top
100
AcDbVertex
100
AcDb2dVertex
 10
33.15
 20
18.48398
  0
VERTEX
  5
449
100
AcDbEntity
  8
Solder_Pad_1_Top
100
AcDbVertex
100
AcDb2dVertex
 10
34.3
 20
17.82002
  0
VERTEX
  5
44A
100
AcDbEntity
  8
Solder_Pad_1_Top
100
AcDbVertex
100
AcDb2dVertex
 10
34.3
 20
20.87998
  0
SEQEND
  5
44B
100
AcDbEntity
  8
Solder_Pad_1_Top
  0
ENDSEC
  0
SECTION
  2
OBJECTS
  0
DICTIONARY
  5
19
100
AcDbDictionary
280
       0
281
       1
  3
ACAD_GROUP
350
1A
  3
ACAD_MLINESTYLE
350
1B
  3
ACAD_LAYOUT
350
1E
  3
ACAD_PLOTSETTINGS
350
22
  3
ACAD_PLOTSTYLENAME
350
1F
  3
ACAD_WIPEOUT_VARS
350
23
  0
DICTIONARY
  5
1A
102
{ACAD_REACTORS
330
19
102
}
100
AcDbDictionary
280
       0
281
       1
  0
DICTIONARY
  5
1B
102
{ACAD_REACTORS
330
19
102
}
100
AcDbDictionary
280
       0
281
       1
  3
Standard
350
1C
  0
MLINESTYLE
  5
1C
102
{ACAD_REACTORS
330
1B
102
}
100
AcDbMlineStyle
  2
Standard
 70
       0
  3

 62
       0
 51
90.0
 52
90.0
 71
       2
 49
0.5
 62
     256
  6
BYLAYER
 49
-0.5
 62
     256
  6
BYLAYER
  0
ACDBDICTIONARYWDFLT
  5
1F
102
{ACAD_REACTORS
330
19
102
}
100
AcDbDictionary
281
       1
  3
Normal
350
1D
100
AcDbDictionaryWithDefault
340
1D
  0
ACDBPLACEHOLDER
  5
1D
102
{ACAD_REACTORS
330
1F
102
}
  0
LAYOUT
  5
20
102
{ACAD_REACTORS
330
1E
102
}
100
AcDbPlotSettings
  1

  2

  4

  6

 40
0.0
 41
0.0
 42
0.0
 43
0.0
 44
0.0
 45
0.0
 46
0.0
 47
0.0
 48
0.0
 49
0.0
140
0.0
141
0.0
142
1.0
143
1.0
 70
    1024
 72
       0
 73
       0
 74
       0
  7

 75
       0
147
1.0
148
0.0
149
0.0
100
AcDbLayout
  1
Model
 70
       0
 71
       0
 10
0.0
 20
0.0
 11
0.0
 21
0.0
 12
0.0
 22
0.0
 32
0.0
 14
0.0
 24
0.0
 34
0.0
 15
0.0
 25
0.0
 35
0.0
146
0.0
 13
0.0
 23
0.0
 33
0.0
 16
0.0
 26
0.0
 36
0.0
 17
0.0
 27
0.0
 37
0.0
 76
       0
330
A
331
0
345
0
346
0
  0
LAYOUT
  5
21
102
{ACAD_REACTORS
330
1E
102
}
100
AcDbPlotSettings
  1

  2

  4

  6

 40
0.0
 41
0.0
 42
0.0
 43
0.0
 44
0.0
 45
0.0
 46
0.0
 47
0.0
 48
0.0
 49
0.0
140
0.0
141
0.0
142
1.0
143
1.0
 70
       0
 72
       0
 73
       0
 74
       0
  7

 75
       0
147
1.0
148
0.0
149
0.0
100
AcDbLayout
  1
Layout1
 70
       0
 71
       0
 10
0.0
 20
0.0
 11
0.0
 21
0.0
 12
0.0
 22
0.0
 32
0.0
 14
0.0
 24
0.0
 34
0.0
 15
0.0
 25
0.0
 35
0.0
146
0.0
 13
0.0
 23
0.0
 33
0.0
 16
0.0
 26
0.0
 36
0.0
 17
0.0
 27
0.0
 37
0.0
 76
       0
330
B
331
0
345
0
346
0
  0
DICTIONARY
  5
1E
102
{ACAD_REACTORS
330
19
102
}
100
AcDbDictionary
280
       0
281
       1
  3
Layout1
350
21
  3
Model
350
20
  0
DICTIONARY
  5
22
102
{ACAD_REACTORS
330
19
102
}
100
AcDbDictionary
280
       0
281
       1
  0
WIPEOUTVARIABLES
  5
23
100
AcDbWipeoutVariables
 70
       1
  0
ENDSEC
  0
EOF
