  0
SECTION
  2
HEADER
  9
$ACADVER
  1
AC1015
  9
$ACADMAINTVER
 70
       6
  9
$DWGCODEPAGE
  3
DOS850
  9
$INSBASE
 10
0.0
 20
0.0
 30
0.0
  9
$EXTMIN
 10
-13.6
 20
0.0
 30
0.0
  9
$EXTMAX
 10
69.11429
 20
43.4
 30
0.0
  9
$LIMMIN
 10
-13.6
 20
0.0
  9
$LIMMAX
 10
69.11429
 20
43.4
  9
$ORTHOMODE
 70
       0
  9
$REGENMODE
 70
       1
  9
$FILLMODE
 70
       1
  9
$QTEXTMODE
 70
       0
  9
$MIRRTEXT
 70
       1
  9
$LTSCALE
 40
1.0
  9
$ATTMODE
 70
       1
  9
$TEXTSIZE
 40
0.2
  9
$TRACEWID
 40
0.05
  9
$TEXTSTYLE
  7
Standard
  9
$CLAYER
  8
0
  9
$CELTYPE
  6
Continuous
  9
$CECOLOR
 62
     256
  9
$CELTSCALE
 40
1.0
  9
$DISPSILH
 70
       0
  9
$DIMSCALE
 40
1.0
  9
$DIMASZ
 40
0.18
  9
$DIMEXO
 40
0.0625
  9
$DIMDLI
 40
0.38
  9
$DIMRND
 40
0.0
  9
$DIMDLE
 40
0.0
  9
$DIMEXE
 40
0.18
  9
$DIMTP
 40
0.0
  9
$DIMTM
 40
0.0
  9
$DIMTXT
 40
0.18
  9
$DIMCEN
 40
0.09
  9
$DIMTSZ
 40
0.0
  9
$DIMTOL
 70
       0
  9
$DIMLIM
 70
       0
  9
$DIMTIH
 70
       1
  9
$DIMTOH
 70
       1
  9
$DIMSE1
 70
       0
  9
$DIMSE2
 70
       0
  9
$DIMTAD
 70
       0
  9
$DIMZIN
 70
       0
  9
$DIMBLK
  1

  9
$DIMASO
 70
       1
  9
$DIMSHO
 70
       1
  9
$DIMPOST
  1

  9
$DIMAPOST
  1

  9
$DIMALT
 70
       0
  9
$DIMALTD
 70
       2
  9
$DIMALTF
 40
25.4
  9
$DIMLFAC
 40
1.0
  9
$DIMTOFL
 70
       0
  9
$DIMTVP
 40
0.0
  9
$DIMTIX
 70
       0
  9
$DIMSOXD
 70
       0
  9
$DIMSAH
 70
       0
  9
$DIMBLK1
  1

  9
$DIMBLK2
  1

  9
$DIMSTYLE
  2
Standard
  9
$DIMCLRD
 70
       0
  9
$DIMCLRE
 70
       0
  9
$DIMCLRT
 70
       0
  9
$DIMTFAC
 40
1.0
  9
$DIMGAP
 40
0.09
  9
$DIMJUST
 70
       0
  9
$DIMSD1
 70
       0
  9
$DIMSD2
 70
       0
  9
$DIMTOLJ
 70
       1
  9
$DIMTZIN
 70
       0
  9
$DIMALTZ
 70
       0
  9
$DIMALTTZ
 70
       0
  9
$DIMUPT
 70
       0
  9
$DIMDEC
 70
       4
  9
$DIMTDEC
 70
       4
  9
$DIMALTU
 70
       2
  9
$DIMALTTD
 70
       2
  9
$DIMTXSTY
  7
Standard
  9
$DIMAUNIT
 70
       0
  9
$DIMADEC
 70
       0
  9
$DIMALTRND
 40
0.0
  9
$DIMAZIN
 70
       0
  9
$DIMDSEP
 70
       0
  9
$DIMATFIT
 70
       3
  9
$DIMFRAC
 70
       0
  9
$DIMLDRBLK
  1

  9
$DIMLUNIT
 70
       2
  9
$DIMLWD
 70
       0
  9
$DIMLWE
 70
       0
  9
$DIMTMOVE
 70
       0
  9
$LUNITS
 70
       2
  9
$LUPREC
 70
       4
  9
$SKETCHINC
 40
0.1
  9
$FILLETRAD
 40
0.0
  9
$AUNITS
 70
       0
  9
$AUPREC
 70
       0
  9
$MENU
  1
acad
  9
$ELEVATION
 40
0.0
  9
$PELEVATION
 40
0.0
  9
$THICKNESS
 40
0.0
  9
$LIMCHECK
 70
       0
  9
$CHAMFERA
 40
0.0
  9
$CHAMFERB
 40
0.0
  9
$CHAMFERC
 40
0.0
  9
$CHAMFERD
 40
0.0
  9
$SKPOLY
 70
       0
  9
$TDCREATE
 40
0.000000000
  9
$TDUCREATE
 40
0.000000000
  9
$TDUPDATE
 40
0.000000000
  9
$TDUUPDATE
 40
0.000000000
  9
$TDINDWG
 40
0.0000000000
  9
$TDUSRTIMER
 40
0.0000000000
  9
$USRTIMER
 70
       1
  9
$ANGBASE
 50
0.0
  9
$ANGDIR
 70
       0
  9
$PDMODE
 70
       0
  9
$PDSIZE
 40
0.0
  9
$PLINEWID
 40
0.0
  9
$SPLFRAME
 70
       0
  9
$SPLINETYPE
 70
       6
  9
$SPLINESEGS
 70
       8
  9
$HANDSEED
  5
616
  9
$SURFTAB1
 70
       6
  9
$SURFTAB2
 70
       6
  9
$SURFTYPE
 70
       6
  9
$SURFU
 70
       6
  9
$SURFV
 70
       6
  9
$UCSBASE
  2

  9
$UCSNAME
  2

  9
$UCSORG
 10
0.0
 20
0.0
 30
0.0
  9
$UCSXDIR
 10
1.0
 20
0.0
 30
0.0
  9
$UCSYDIR
 10
0.0
 20
1.0
 30
0.0
  9
$UCSORTHOREF
  2

  9
$UCSORTHOVIEW
 70
       0
  9
$UCSORGTOP
 10
0.0
 20
0.0
 30
0.0
  9
$UCSORGBOTTOM
 10
0.0
 20
0.0
 30
0.0
  9
$UCSORGLEFT
 10
0.0
 20
0.0
 30
0.0
  9
$UCSORGRIGHT
 10
0.0
 20
0.0
 30
0.0
  9
$UCSORGFRONT
 10
0.0
 20
0.0
 30
0.0
  9
$UCSORGBACK
 10
0.0
 20
0.0
 30
0.0
  9
$PUCSBASE
  2

  9
$PUCSNAME
  2

  9
$PUCSORG
 10
0.0
 20
0.0
 30
0.0
  9
$PUCSXDIR
 10
1.0
 20
0.0
 30
0.0
  9
$PUCSYDIR
 10
0.0
 20
1.0
 30
0.0
  9
$PUCSORTHOREF
  2

  9
$PUCSORTHOVIEW
 70
       0
  9
$PUCSORGTOP
 10
0.0
 20
0.0
 30
0.0
  9
$PUCSORGBOTTOM
 10
0.0
 20
0.0
 30
0.0
  9
$PUCSORGLEFT
 10
0.0
 20
0.0
 30
0.0
  9
$PUCSORGRIGHT
 10
0.0
 20
0.0
 30
0.0
  9
$PUCSORGFRONT
 10
0.0
 20
0.0
 30
0.0
  9
$PUCSORGBACK
 10
0.0
 20
0.0
 30
0.0
  9
$USERI1
 70
       0
  9
$USERI2
 70
       0
  9
$USERI3
 70
       0
  9
$USERI4
 70
       0
  9
$USERI5
 70
       0
  9
$USERR1
 40
0.0
  9
$USERR2
 40
0.0
  9
$USERR3
 40
0.0
  9
$USERR4
 40
0.0
  9
$USERR5
 40
0.0
  9
$WORLDVIEW
 70
       1
  9
$SHADEDGE
 70
       3
  9
$SHADEDIF
 70
      70
  9
$TILEMODE
 70
       1
  9
$MAXACTVP
 70
      16
  9
$PINSBASE
 10
0.0
 20
0.0
 30
0.0
  9
$PLIMCHECK
 70
       0
  9
$PEXTMIN
 10
1.00000000E+20
 20
1.00000000E+20
 30
1.00000000E+20
  9
$PEXTMAX
 10
-1.00000000E+20
 20
-1.00000000E+20
 30
-1.00000000E+20
  9
$PLIMMIN
 10
0.0
 20
0.0
  9
$PLIMMAX
 10
12.0
 20
9.0
  9
$UNITMODE
 70
       0
  9
$VISRETAIN
 70
       0
  9
$PLINEGEN
 70
       1
  9
$PSLTSCALE
 70
       0
  9
$TREEDEPTH
 70
    3020
  9
$CMLSTYLE
  2
Standard
  9
$CMLJUST
 70
       0
  9
$CMLSCALE
 40
1.0
  9
$PROXYGRAPHICS
 70
       0
  9
$MEASUREMENT
 70
       0
  9
$CELWEIGHT
370
       0
  9
$ENDCAPS
280
       0
  9
$JOINSTYLE
280
       0
  9
$LWDISPLAY
290
       0
  9
$INSUNITS
 70
       0
  9
$HYPERLINKBASE
  1

  9
$XEDIT
290
       1
  9
$CEPSNTYPE
380
       0
  9
$PSTYLEMODE
290
       1
  9
$FINGERPRINTGUID
  2

  9
$VERSIONGUID
  2

  9
$EXTNAMES
290
       1
  9
$PSVPSCALE
 40
0.0
  0
ENDSEC
  0
SECTION
  2
CLASSES
  0
CLASS
  1
LWPOLYLINE
  2
AcDbPolyline
  3
AutoCAD 2000
 90
    32768
280
       0
281
       1
  0
CLASS
  1
IMAGE
  2
AcDbRasterImage
  3
ISM
 90
    32895
280
       0
281
       1
  0
CLASS
  1
OLE2FRAME
  2
AcDbOle2Frame
  3
AutoCAD 2000
 90
    32768
280
       0
281
       1
  0
CLASS
  1
HATCH
  2
AcDbHatch
  3
AutoCAD 2000
 90
        0
280
       0
281
       1
  0
CLASS
  1
DICTIONARYVAR
  2
AcDbDictionaryVar
  3
AutoCAD 2000
 90
    32768
280
       0
281
       0
  0
CLASS
  1
RASTERVARIABLES
  2
AcDbRasterVariables
  3
ISM
 90
    32768
280
       0
281
       0
  0
CLASS
  1
IMAGEDEF
  2
AcDbRasterImageDef
  3
ISM
 90
    32768
280
       0
281
       0
  0
CLASS
  1
IMAGEDEF_REACTOR
  2
AcDbRasterImageDefReactor
  3
ISM
 90
    32769
280
       0
281
       0
  0
CLASS
  1
IDBUFFER
  2
AcDbIdBuffer
  3
AutoCAD 2000
 90
    32768
280
       0
281
       0
  0
CLASS
  1
SPATIAL_FILTER
  2
AcDbSpatialFilter
  3
AutoCAD 2000
 90
    32768
280
       0
281
       0
  0
CLASS
  1
XRECORD
  2
AcDbXrecord
  3
AutoCAD 2000
 90
    32768
280
       0
281
       0
  0
CLASS
  1
SORTENTSTABLE
  2
AcDbSortentsTable
  3
AutoCAD 2000
 90
    32768
280
       0
281
       0
  0
CLASS
  1
LAYER_INDEX
  2
AcDbLayerIndex
  3
AutoCAD 2000
 90
    32768
280
       0
281
       0
  0
CLASS
  1
SPATIAL_INDEX
  2
AcDbSpatialIndex
  3
AutoCAD 2000
 90
    32768
280
       0
281
       0
  0
CLASS
  1
OBJECT_PTR
  2
CAseDLPNTableRecord
  3
"ASE-LPNTableRecord"
 90
    32769
280
       0
281
       0
  0
CLASS
  1
LAYOUT
  2
AcDbLayout
  3
AutoCAD 2000
 90
        0
280
       0
281
       0
  0
CLASS
  1
PLOTSETTINGS
  2
AcDbPlotSettings
  3
AutoCAD 2000
 90
    32768
280
       0
281
       0
  0
CLASS
  1
ACDBDICTIONARYWDFLT
  2
AcDbDictionaryWithDefault
  3
AutoCAD 2000
 90
        0
280
       0
281
       0
  0
CLASS
  1
ACDBPLACEHOLDER
  2
AcDbPlaceHolder
  3
AutoCAD 2000
 90
        0
280
       0
281
       0
  0
CLASS
  1
VBA_PROJECT
  2
AcDbVbaProject
  3
acadvba
 90
    32768
280
       0
281
       0
  0
CLASS
  1
WIPEOUT
  2
AcDbWipeout
  3
WipeOut|AutoCAD Express Tool|expresstools@autodesk.com
 90
    32895
280
       0
281
       1
  0
CLASS
  1
WIPEOUTVARIABLES
  2
AcDbWipeoutVariables
  3
WipeOut|AutoCAD Express Tool|expresstools@autodesk.com
 90
        0
280
       0
281
       0
  0
CLASS
  1
RTEXT
  2
RText
  3
RText|AutoCAD Express Tool|expresstools@autodesk.com
 90
    32768
280
       0
281
       1
  0
CLASS
  1
ARCALIGNEDTEXT
  2
AcDbArcAlignedText
  3
ATEXT|AutoCAD Express Tool|expresstools@autodesk.com
 90
    32768
280
       0
281
       1
  0
ENDSEC
  0
SECTION
  2
TABLES
  0
TABLE
  2
VPORT
  5
7
100
AcDbSymbolTable
 70
       1
  0
VPORT
  5
15
100
AcDbSymbolTableRecord
100
AcDbViewportTableRecord
  2
*ACTIVE
 70
       0
 10
0.0
 20
0.0
 11
1.0
 21
1.0
 12
0.0
 22
0.0
 13
0.0
 23
0.0
 14
1.0
 24
1.0
 15
0.0
 25
0.0
 16
0.0
 26
0.0
 36
1.0
 17
27.757145
 27
21.7
 37
0.0
 40
86.8500045
 41
1.0
 42
50.0
 43
0.0
 44
0.0
 50
0.0
 51
0.0
 71
       0
 72
     100
 73
       1
 74
       1
 75
       0
 76
       0
 77
       0
 78
       0
281
       0
 65
       0
110
0.0
120
0.0
130
0.0
111
1.0
121
0.0
131
0.0
112
0.0
122
1.0
132
0.0
345
0
346
0
 79
       0
146
0.0
  0
ENDTAB
  0
TABLE
  2
LTYPE
  5
4
100
AcDbSymbolTable
 70
      11
  0
LTYPE
  5
11
100
AcDbSymbolTableRecord
100
AcDbLinetypeTableRecord
  2
ByBlock
 70
      64
  3

 72
      65
 73
       0
 40
0.0
  0
LTYPE
  5
12
100
AcDbSymbolTableRecord
100
AcDbLinetypeTableRecord
  2
ByLayer
 70
      64
  3

 72
      65
 73
       0
 40
0.0
  0
LTYPE
  5
13
100
AcDbSymbolTableRecord
100
AcDbLinetypeTableRecord
  2
Continuous
 70
      64
  3
Solid line
 72
      65
 73
       0
 40
0.0
  0
LTYPE
  5
29
100
AcDbSymbolTableRecord
100
AcDbLinetypeTableRecord
  2
CONTINUOUS
 70
       0
  3
_____________________________________________
 72
      65
 73
       0
 40
0.0
  0
LTYPE
  5
2A
100
AcDbSymbolTableRecord
100
AcDbLinetypeTableRecord
  2
HIDDEN
 70
       0
  3
__ __ __ __ __ __ __ __ __ __ __ __ __ __ __ __
 72
      65
 73
       2
 40
0.75
 49
0.5
 74
       0
 49
-0.25
 74
       0
  0
LTYPE
  5
2B
100
AcDbSymbolTableRecord
100
AcDbLinetypeTableRecord
  2
BORDER
 70
       0
  3
-- . -- . -- . -- . --
 72
      65
 73
       4
 40
1.0
 49
0.5
 74
       0
 49
-0.25
 74
       0
 49
0.0
 74
       0
 49
-0.25
 74
       0
  0
LTYPE
  5
2C
100
AcDbSymbolTableRecord
100
AcDbLinetypeTableRecord
  2
DASHED
 70
       0
  3
- - - - - - - -
 72
      65
 73
       2
 40
1.25
 49
1.0
 74
       0
 49
-0.25
 74
       0
  0
LTYPE
  5
2D
100
AcDbSymbolTableRecord
100
AcDbLinetypeTableRecord
  2
CENTER
 70
       0
  3
--- - --- - --- - ---
 72
      65
 73
       4
 40
1.1
 49
0.5
 74
       0
 49
-0.25
 74
       0
 49
0.1
 74
       0
 49
-0.25
 74
       0
  0
LTYPE
  5
2E
100
AcDbSymbolTableRecord
100
AcDbLinetypeTableRecord
  2
PHANTOM
 70
       0
  3
--- - - --- - - --- - - ---
 72
      65
 73
       6
 40
1.45
 49
0.5
 74
       0
 49
-0.25
 74
       0
 49
0.1
 74
       0
 49
-0.25
 74
       0
 49
0.1
 74
       0
 49
-0.25
 74
       0
  0
LTYPE
  5
2F
100
AcDbSymbolTableRecord
100
AcDbLinetypeTableRecord
  2
DOT
 70
       0
  3
. . . . . . . . . .
 72
      65
 73
       2
 40
0.25
 49
0.0
 74
       0
 49
-0.25
 74
       0
  0
LTYPE
  5
30
100
AcDbSymbolTableRecord
100
AcDbLinetypeTableRecord
  2
DIVIDE
 70
       0
  3
.  .  .  .  .  .  .  .  .  .
 72
      65
 73
       2
 40
0.5
 49
0.0
 74
       0
 49
-0.5
 74
       0
  0
ENDTAB
  0
TABLE
  2
LAYER
  5
2
100
AcDbSymbolTable
 70
       3
  0
LAYER
  5
14
100
AcDbSymbolTableRecord
100
AcDbLayerTableRecord
  2
0
 70
       0
 62
       7
  6
Continuous
290
       1
370
      -3
390
1D
  0
LAYER
  5
31
100
AcDbSymbolTableRecord
100
AcDbLayerTableRecord
  2
Documentation_1
 70
       0
 62
       4
  6
CONTINUOUS
290
       1
370
      -3
390
1F
  0
LAYER
  5
32
100
AcDbSymbolTableRecord
100
AcDbLayerTableRecord
  2
Solder_Pad_1_Top
 70
       0
 62
       1
  6
CONTINUOUS
290
       1
370
      -3
390
1F
  0
ENDTAB
  0
TABLE
  2
STYLE
  5
3
100
AcDbSymbolTable
 70
       6
  0
STYLE
  5
17
100
AcDbSymbolTableRecord
100
AcDbTextStyleTableRecord
  2
Standard
 70
       0
 40
0.0
 41
1.0
 50
0.0
 71
       0
 42
0.0
  3
txt
  4

  0
STYLE
  5
24
100
AcDbSymbolTableRecord
100
AcDbTextStyleTableRecord
  2
iso
 70
       0
 40
1.0
 41
1.0
 50
0.0
 71
       0
 42
1.0
  3
iso
  4

  0
STYLE
  5
25
100
AcDbSymbolTableRecord
100
AcDbTextStyleTableRecord
  2
complex
 70
       0
 40
1.0
 41
1.0
 50
0.0
 71
       0
 42
1.0
  3
complex
  4

  0
STYLE
  5
26
100
AcDbSymbolTableRecord
100
AcDbTextStyleTableRecord
  2
simplex
 70
       0
 40
1.0
 41
1.0
 50
0.0
 71
       0
 42
1.0
  3
simplex
  4

  0
STYLE
  5
27
100
AcDbSymbolTableRecord
100
AcDbTextStyleTableRecord
  2
romanc
 70
       0
 40
1.0
 41
1.0
 50
0.0
 71
       0
 42
1.0
  3
romanc
  4

  0
STYLE
  5
28
100
AcDbSymbolTableRecord
100
AcDbTextStyleTableRecord
  2
romant
 70
       0
 40
1.0
 41
1.0
 50
0.0
 71
       0
 42
1.0
  3
romant
  4

  0
ENDTAB
  0
TABLE
  2
VIEW
  5
5
100
AcDbSymbolTable
 70
       1
  0
VIEW
  5
33
100
AcDbSymbolTableRecord
100
AcDbViewTableRecord
  2
FIT
 70
       0
 40
1.0
 10
0.0
 20
0.0
 41
109.368
 11
0.0
 21
0.0
 31
1.0
 12
27.757145
 22
21.7
 32
0.0
 42
50.0
 43
0.0
 44
0.0
 50
0.0
 71
       0
281
       0
 72
       0
110
0.0
120
0.0
130
0.0
111
1.0
121
0.0
131
0.0
112
0.0
122
1.0
132
0.0
  0
ENDTAB
  0
TABLE
  2
UCS
  5
6
100
AcDbSymbolTable
 70
       0
  0
ENDTAB
  0
TABLE
  2
APPID
  5
8
100
AcDbSymbolTable
 70
       1
  0
APPID
  5
16
100
AcDbSymbolTableRecord
100
AcDbRegAppTableRecord
  2
ACAD
 70
       0
  0
ENDTAB
  0
TABLE
  2
DIMSTYLE
  5
9
100
AcDbSymbolTable
 70
       1
100
AcDbDimStyleTable
 71
       0
  0
DIMSTYLE
105
18
100
AcDbSymbolTableRecord
100
AcDbDimStyleTableRecord
  2
Standard
 70
       0
  3

  4

 40
1.0
 41
0.18
 42
0.0625
 43
0.38
 44
0.18
 45
0.0
 46
0.0
 47
0.0
 48
0.0
 71
       0
 72
       0
 73
       1
 74
       1
 75
       0
 76
       0
 77
       0
 78
       0
 79
       0
140
0.18
141
0.09
142
0.0
143
25.4
144
1.0
145
0.0
146
1.0
147
0.09
148
0.0
170
       0
171
       2
172
       0
173
       0
174
       0
175
       0
176
       0
177
       0
178
       0
179
       0
271
       4
272
       4
273
       2
274
       2
275
       0
276
       0
277
       2
278
      46
279
       0
280
       0
281
       0
282
       0
283
       1
284
       0
285
       0
286
       0
288
       0
340
17
341
0
342
0
343
0
344
0
371
      -2
372
      -2
  0
ENDTAB
  0
TABLE
  2
BLOCK_RECORD
  5
1
100
AcDbSymbolTable
 70
       0
  0
BLOCK_RECORD
  5
A
100
AcDbSymbolTableRecord
100
AcDbBlockTableRecord
  2
*MODEL_SPACE
340
20
  0
BLOCK_RECORD
  5
B
100
AcDbSymbolTableRecord
100
AcDbBlockTableRecord
  2
*PAPER_SPACE
340
21
  0
ENDTAB
  0
ENDSEC
  0
SECTION
  2
BLOCKS
  0
BLOCK
  5
D
100
AcDbEntity
  8
0
100
AcDbBlockBegin
  2
*MODEL_SPACE
 70
       0
 10
0.0
 20
0.0
 30
0.0
  3
*MODEL_SPACE
  1

  0
ENDBLK
  5
E
100
AcDbEntity
  8
0
100
AcDbBlockEnd
  0
BLOCK
  5
F
100
AcDbEntity
 67
       1
  8
0
100
AcDbBlockBegin
  2
*PAPER_SPACE
 70
       0
 10
0.0
 20
0.0
 30
0.0
  3
*PAPER_SPACE
  1

  0
ENDBLK
  5
10
100
AcDbEntity
 67
       1
  8
0
100
AcDbBlockEnd
  0
ENDSEC
  0
SECTION
  2
ENTITIES
  0
TEXT
  5
34
100
AcDbEntity
  8
Documentation_1
100
AcDbText
 10
-13.6
 20
37.4
 40
6.0
  1
flow90 pattern
  7
complex
100
AcDbText
  0
HATCH
  5
35
100
AcDbEntity
  8
Solder_Pad_1_Top
100
AcDbHatch
 10
0.0
 20
0.0
 30
0.0
210
0.0
220
0.0
230
1.0
  2
SOLID
 70
       1
 71
       1
 91
        1
 92
        1
 93
        3
 72
       1
 10
51.482039999999998
 20
22.00001
 11
52.75
 21
21.267959999999999
 72
       1
 10
52.75
 20
21.267959999999999
 11
54.017960000000002
 21
22.00001
 72
       1
 10
54.017960000000002
 20
22.00001
 11
51.482039999999998
 21
22.00001
 97
        0
 75
       0
 76
       2
 98
        1
 10
0.0
 20
0.0
  0
POLYLINE
  5
36
100
AcDbEntity
  8
Solder_Pad_1_Top
100
AcDb2dPolyline
 66
       1
 10
0.0
 20
0.0
 30
0.0
 70
       1
  0
VERTEX
  5
37
100
AcDbEntity
  8
Solder_Pad_1_Top
100
AcDbVertex
100
AcDb2dVertex
 10
54.01796
 20
22.00001
  0
VERTEX
  5
38
100
AcDbEntity
  8
Solder_Pad_1_Top
100
AcDbVertex
100
AcDb2dVertex
 10
54.01796
 20
22.00001
  0
VERTEX
  5
39
100
AcDbEntity
  8
Solder_Pad_1_Top
100
AcDbVertex
100
AcDb2dVertex
 10
52.75
 20
21.26796
  0
VERTEX
  5
3A
100
AcDbEntity
  8
Solder_Pad_1_Top
100
AcDbVertex
100
AcDb2dVertex
 10
51.48204
 20
22.00001
  0
VERTEX
  5
3B
100
AcDbEntity
  8
Solder_Pad_1_Top
100
AcDbVertex
100
AcDb2dVertex
 10
54.01796
 20
22.00001
  0
SEQEND
  5
3C
100
AcDbEntity
  8
Solder_Pad_1_Top
  0
HATCH
  5
3D
100
AcDbEntity
  8
Solder_Pad_1_Top
100
AcDbHatch
 10
0.0
 20
0.0
 30
0.0
210
0.0
220
0.0
230
1.0
  2
SOLID
 70
       1
 71
       1
 91
        1
 92
        1
 93
        3
 72
       1
 10
47.982039999999998
 20
22.00001
 11
49.25
 21
21.267959999999999
 72
       1
 10
49.25
 20
21.267959999999999
 11
50.517960000000002
 21
22.00001
 72
       1
 10
50.517960000000002
 20
22.00001
 11
47.982039999999998
 21
22.00001
 97
        0
 75
       0
 76
       2
 98
        1
 10
0.0
 20
0.0
  0
POLYLINE
  5
3E
100
AcDbEntity
  8
Solder_Pad_1_Top
100
AcDb2dPolyline
 66
       1
 10
0.0
 20
0.0
 30
0.0
 70
       1
  0
VERTEX
  5
3F
100
AcDbEntity
  8
Solder_Pad_1_Top
100
AcDbVertex
100
AcDb2dVertex
 10
50.51796
 20
22.00001
  0
VERTEX
  5
40
100
AcDbEntity
  8
Solder_Pad_1_Top
100
AcDbVertex
100
AcDb2dVertex
 10
50.51796
 20
22.00001
  0
VERTEX
  5
41
100
AcDbEntity
  8
Solder_Pad_1_Top
100
AcDbVertex
100
AcDb2dVertex
 10
49.25
 20
21.26796
  0
VERTEX
  5
42
100
AcDbEntity
  8
Solder_Pad_1_Top
100
AcDbVertex
100
AcDb2dVertex
 10
47.98204
 20
22.00001
  0
VERTEX
  5
43
100
AcDbEntity
  8
Solder_Pad_1_Top
100
AcDbVertex
100
AcDb2dVertex
 10
50.51796
 20
22.00001
  0
SEQEND
  5
44
100
AcDbEntity
  8
Solder_Pad_1_Top
  0
HATCH
  5
45
100
AcDbEntity
  8
Solder_Pad_1_Top
100
AcDbHatch
 10
0.0
 20
0.0
 30
0.0
210
0.0
220
0.0
230
1.0
  2
SOLID
 70
       1
 71
       1
 91
        1
 92
        1
 93
        3
 72
       1
 10
44.482039999999998
 20
22.00001
 11
45.75
 21
21.267959999999999
 72
       1
 10
45.75
 20
21.267959999999999
 11
47.017960000000002
 21
22.00001
 72
       1
 10
47.017960000000002
 20
22.00001
 11
44.482039999999998
 21
22.00001
 97
        0
 75
       0
 76
       2
 98
        1
 10
0.0
 20
0.0
  0
POLYLINE
  5
46
100
AcDbEntity
  8
Solder_Pad_1_Top
100
AcDb2dPolyline
 66
       1
 10
0.0
 20
0.0
 30
0.0
 70
       1
  0
VERTEX
  5
47
100
AcDbEntity
  8
Solder_Pad_1_Top
100
AcDbVertex
100
AcDb2dVertex
 10
47.01796
 20
22.00001
  0
VERTEX
  5
48
100
AcDbEntity
  8
Solder_Pad_1_Top
100
AcDbVertex
100
AcDb2dVertex
 10
47.01796
 20
22.00001
  0
VERTEX
  5
49
100
AcDbEntity
  8
Solder_Pad_1_Top
100
AcDbVertex
100
AcDb2dVertex
 10
45.75
 20
21.26796
  0
VERTEX
  5
4A
100
AcDbEntity
  8
Solder_Pad_1_Top
100
AcDbVertex
100
AcDb2dVertex
 10
44.48204
 20
22.00001
  0
VERTEX
  5
4B
100
AcDbEntity
  8
Solder_Pad_1_Top
100
AcDbVertex
100
AcDb2dVertex
 10
47.01796
 20
22.00001
  0
SEQEND
  5
4C
100
AcDbEntity
  8
Solder_Pad_1_Top
  0
HATCH
  5
4D
100
AcDbEntity
  8
Solder_Pad_1_Top
100
AcDbHatch
 10
0.0
 20
0.0
 30
0.0
210
0.0
220
0.0
230
1.0
  2
SOLID
 70
       1
 71
       1
 91
        1
 92
        1
 93
        3
 72
       1
 10
40.982039999999998
 20
22.00001
 11
42.25
 21
21.267959999999999
 72
       1
 10
42.25
 20
21.267959999999999
 11
43.517960000000002
 21
22.00001
 72
       1
 10
43.517960000000002
 20
22.00001
 11
40.982039999999998
 21
22.00001
 97
        0
 75
       0
 76
       2
 98
        1
 10
0.0
 20
0.0
  0
POLYLINE
  5
4E
100
AcDbEntity
  8
Solder_Pad_1_Top
100
AcDb2dPolyline
 66
       1
 10
0.0
 20
0.0
 30
0.0
 70
       1
  0
VERTEX
  5
4F
100
AcDbEntity
  8
Solder_Pad_1_Top
100
AcDbVertex
100
AcDb2dVertex
 10
43.51796
 20
22.00001
  0
VERTEX
  5
50
100
AcDbEntity
  8
Solder_Pad_1_Top
100
AcDbVertex
100
AcDb2dVertex
 10
43.51796
 20
22.00001
  0
VERTEX
  5
51
100
AcDbEntity
  8
Solder_Pad_1_Top
100
AcDbVertex
100
AcDb2dVertex
 10
42.25
 20
21.26796
  0
VERTEX
  5
52
100
AcDbEntity
  8
Solder_Pad_1_Top
100
AcDbVertex
100
AcDb2dVertex
 10
40.98204
 20
22.00001
  0
VERTEX
  5
53
100
AcDbEntity
  8
Solder_Pad_1_Top
100
AcDbVertex
100
AcDb2dVertex
 10
43.51796
 20
22.00001
  0
SEQEND
  5
54
100
AcDbEntity
  8
Solder_Pad_1_Top
  0
HATCH
  5
55
100
AcDbEntity
  8
Solder_Pad_1_Top
100
AcDbHatch
 10
0.0
 20
0.0
 30
0.0
210
0.0
220
0.0
230
1.0
  2
SOLID
 70
       1
 71
       1
 91
        1
 92
        1
 93
        3
 72
       1
 10
37.482039999999998
 20
22.00001
 11
38.75
 21
21.267959999999999
 72
       1
 10
38.75
 20
21.267959999999999
 11
40.017960000000002
 21
22.00001
 72
       1
 10
40.017960000000002
 20
22.00001
 11
37.482039999999998
 21
22.00001
 97
        0
 75
       0
 76
       2
 98
        1
 10
0.0
 20
0.0
  0
POLYLINE
  5
56
100
AcDbEntity
  8
Solder_Pad_1_Top
100
AcDb2dPolyline
 66
       1
 10
0.0
 20
0.0
 30
0.0
 70
       1
  0
VERTEX
  5
57
100
AcDbEntity
  8
Solder_Pad_1_Top
100
AcDbVertex
100
AcDb2dVertex
 10
40.01796
 20
22.00001
  0
VERTEX
  5
58
100
AcDbEntity
  8
Solder_Pad_1_Top
100
AcDbVertex
100
AcDb2dVertex
 10
40.01796
 20
22.00001
  0
VERTEX
  5
59
100
AcDbEntity
  8
Solder_Pad_1_Top
100
AcDbVertex
100
AcDb2dVertex
 10
38.75
 20
21.26796
  0
VERTEX
  5
5A
100
AcDbEntity
  8
Solder_Pad_1_Top
100
AcDbVertex
100
AcDb2dVertex
 10
37.48204
 20
22.00001
  0
VERTEX
  5
5B
100
AcDbEntity
  8
Solder_Pad_1_Top
100
AcDbVertex
100
AcDb2dVertex
 10
40.01796
 20
22.00001
  0
SEQEND
  5
5C
100
AcDbEntity
  8
Solder_Pad_1_Top
  0
HATCH
  5
5D
100
AcDbEntity
  8
Solder_Pad_1_Top
100
AcDbHatch
 10
0.0
 20
0.0
 30
0.0
210
0.0
220
0.0
230
1.0
  2
SOLID
 70
       1
 71
       1
 91
        1
 92
        1
 93
        3
 72
       1
 10
33.982039999999998
 20
22.00001
 11
35.25
 21
21.267959999999999
 72
       1
 10
35.25
 20
21.267959999999999
 11
36.517960000000002
 21
22.00001
 72
       1
 10
36.517960000000002
 20
22.00001
 11
33.982039999999998
 21
22.00001
 97
        0
 75
       0
 76
       2
 98
        1
 10
0.0
 20
0.0
  0
POLYLINE
  5
5E
100
AcDbEntity
  8
Solder_Pad_1_Top
100
AcDb2dPolyline
 66
       1
 10
0.0
 20
0.0
 30
0.0
 70
       1
  0
VERTEX
  5
5F
100
AcDbEntity
  8
Solder_Pad_1_Top
100
AcDbVertex
100
AcDb2dVertex
 10
36.51796
 20
22.00001
  0
VERTEX
  5
60
100
AcDbEntity
  8
Solder_Pad_1_Top
100
AcDbVertex
100
AcDb2dVertex
 10
36.51796
 20
22.00001
  0
VERTEX
  5
61
100
AcDbEntity
  8
Solder_Pad_1_Top
100
AcDbVertex
100
AcDb2dVertex
 10
35.25
 20
21.26796
  0
VERTEX
  5
62
100
AcDbEntity
  8
Solder_Pad_1_Top
100
AcDbVertex
100
AcDb2dVertex
 10
33.98204
 20
22.00001
  0
VERTEX
  5
63
100
AcDbEntity
  8
Solder_Pad_1_Top
100
AcDbVertex
100
AcDb2dVertex
 10
36.51796
 20
22.00001
  0
SEQEND
  5
64
100
AcDbEntity
  8
Solder_Pad_1_Top
  0
HATCH
  5
65
100
AcDbEntity
  8
Solder_Pad_1_Top
100
AcDbHatch
 10
0.0
 20
0.0
 30
0.0
210
0.0
220
0.0
230
1.0
  2
SOLID
 70
       1
 71
       1
 91
        1
 92
        1
 93
        3
 72
       1
 10
30.482040000000001
 20
22.00001
 11
31.75
 21
21.267959999999999
 72
       1
 10
31.75
 20
21.267959999999999
 11
33.017960000000002
 21
22.00001
 72
       1
 10
33.017960000000002
 20
22.00001
 11
30.482040000000001
 21
22.00001
 97
        0
 75
       0
 76
       2
 98
        1
 10
0.0
 20
0.0
  0
POLYLINE
  5
66
100
AcDbEntity
  8
Solder_Pad_1_Top
100
AcDb2dPolyline
 66
       1
 10
0.0
 20
0.0
 30
0.0
 70
       1
  0
VERTEX
  5
67
100
AcDbEntity
  8
Solder_Pad_1_Top
100
AcDbVertex
100
AcDb2dVertex
 10
33.01796
 20
22.00001
  0
VERTEX
  5
68
100
AcDbEntity
  8
Solder_Pad_1_Top
100
AcDbVertex
100
AcDb2dVertex
 10
33.01796
 20
22.00001
  0
VERTEX
  5
69
100
AcDbEntity
  8
Solder_Pad_1_Top
100
AcDbVertex
100
AcDb2dVertex
 10
31.75
 20
21.26796
  0
VERTEX
  5
6A
100
AcDbEntity
  8
Solder_Pad_1_Top
100
AcDbVertex
100
AcDb2dVertex
 10
30.48204
 20
22.00001
  0
VERTEX
  5
6B
100
AcDbEntity
  8
Solder_Pad_1_Top
100
AcDbVertex
100
AcDb2dVertex
 10
33.01796
 20
22.00001
  0
SEQEND
  5
6C
100
AcDbEntity
  8
Solder_Pad_1_Top
  0
HATCH
  5
6D
100
AcDbEntity
  8
Solder_Pad_1_Top
100
AcDbHatch
 10
0.0
 20
0.0
 30
0.0
210
0.0
220
0.0
230
1.0
  2
SOLID
 70
       1
 71
       1
 91
        1
 92
        1
 93
        3
 72
       1
 10
26.982040000000001
 20
22.00001
 11
28.25
 21
21.267959999999999
 72
       1
 10
28.25
 20
21.267959999999999
 11
29.517959999999999
 21
22.00001
 72
       1
 10
29.517959999999999
 20
22.00001
 11
26.982040000000001
 21
22.00001
 97
        0
 75
       0
 76
       2
 98
        1
 10
0.0
 20
0.0
  0
POLYLINE
  5
6E
100
AcDbEntity
  8
Solder_Pad_1_Top
100
AcDb2dPolyline
 66
       1
 10
0.0
 20
0.0
 30
0.0
 70
       1
  0
VERTEX
  5
6F
100
AcDbEntity
  8
Solder_Pad_1_Top
100
AcDbVertex
100
AcDb2dVertex
 10
29.51796
 20
22.00001
  0
VERTEX
  5
70
100
AcDbEntity
  8
Solder_Pad_1_Top
100
AcDbVertex
100
AcDb2dVertex
 10
29.51796
 20
22.00001
  0
VERTEX
  5
71
100
AcDbEntity
  8
Solder_Pad_1_Top
100
AcDbVertex
100
AcDb2dVertex
 10
28.25
 20
21.26796
  0
VERTEX
  5
72
100
AcDbEntity
  8
Solder_Pad_1_Top
100
AcDbVertex
100
AcDb2dVertex
 10
26.98204
 20
22.00001
  0
VERTEX
  5
73
100
AcDbEntity
  8
Solder_Pad_1_Top
100
AcDbVertex
100
AcDb2dVertex
 10
29.51796
 20
22.00001
  0
SEQEND
  5
74
100
AcDbEntity
  8
Solder_Pad_1_Top
  0
HATCH
  5
75
100
AcDbEntity
  8
Solder_Pad_1_Top
100
AcDbHatch
 10
0.0
 20
0.0
 30
0.0
210
0.0
220
0.0
230
1.0
  2
SOLID
 70
       1
 71
       1
 91
        1
 92
        1
 93
        3
 72
       1
 10
23.482040000000001
 20
21.950009999999999
 11
24.75
 21
21.217960000000001
 72
       1
 10
24.75
 20
21.217960000000001
 11
26.017959999999999
 21
21.950009999999999
 72
       1
 10
26.017959999999999
 20
21.950009999999999
 11
23.482040000000001
 21
21.950009999999999
 97
        0
 75
       0
 76
       2
 98
        1
 10
0.0
 20
0.0
  0
POLYLINE
  5
76
100
AcDbEntity
  8
Solder_Pad_1_Top
100
AcDb2dPolyline
 66
       1
 10
0.0
 20
0.0
 30
0.0
 70
       1
  0
VERTEX
  5
77
100
AcDbEntity
  8
Solder_Pad_1_Top
100
AcDbVertex
100
AcDb2dVertex
 10
26.01796
 20
21.95001
  0
VERTEX
  5
78
100
AcDbEntity
  8
Solder_Pad_1_Top
100
AcDbVertex
100
AcDb2dVertex
 10
26.01796
 20
21.95001
  0
VERTEX
  5
79
100
AcDbEntity
  8
Solder_Pad_1_Top
100
AcDbVertex
100
AcDb2dVertex
 10
24.75
 20
21.21796
  0
VERTEX
  5
7A
100
AcDbEntity
  8
Solder_Pad_1_Top
100
AcDbVertex
100
AcDb2dVertex
 10
23.48204
 20
21.95001
  0
VERTEX
  5
7B
100
AcDbEntity
  8
Solder_Pad_1_Top
100
AcDbVertex
100
AcDb2dVertex
 10
26.01796
 20
21.95001
  0
SEQEND
  5
7C
100
AcDbEntity
  8
Solder_Pad_1_Top
  0
HATCH
  5
7D
100
AcDbEntity
  8
Solder_Pad_1_Top
100
AcDbHatch
 10
0.0
 20
0.0
 30
0.0
210
0.0
220
0.0
230
1.0
  2
SOLID
 70
       1
 71
       1
 91
        1
 92
        1
 93
        3
 72
       1
 10
19.982040000000001
 20
22.00001
 11
21.25
 21
21.267959999999999
 72
       1
 10
21.25
 20
21.267959999999999
 11
22.517959999999999
 21
22.00001
 72
       1
 10
22.517959999999999
 20
22.00001
 11
19.982040000000001
 21
22.00001
 97
        0
 75
       0
 76
       2
 98
        1
 10
0.0
 20
0.0
  0
POLYLINE
  5
7E
100
AcDbEntity
  8
Solder_Pad_1_Top
100
AcDb2dPolyline
 66
       1
 10
0.0
 20
0.0
 30
0.0
 70
       1
  0
VERTEX
  5
7F
100
AcDbEntity
  8
Solder_Pad_1_Top
100
AcDbVertex
100
AcDb2dVertex
 10
22.51796
 20
22.00001
  0
VERTEX
  5
80
100
AcDbEntity
  8
Solder_Pad_1_Top
100
AcDbVertex
100
AcDb2dVertex
 10
22.51796
 20
22.00001
  0
VERTEX
  5
81
100
AcDbEntity
  8
Solder_Pad_1_Top
100
AcDbVertex
100
AcDb2dVertex
 10
21.25
 20
21.26796
  0
VERTEX
  5
82
100
AcDbEntity
  8
Solder_Pad_1_Top
100
AcDbVertex
100
AcDb2dVertex
 10
19.98204
 20
22.00001
  0
VERTEX
  5
83
100
AcDbEntity
  8
Solder_Pad_1_Top
100
AcDbVertex
100
AcDb2dVertex
 10
22.51796
 20
22.00001
  0
SEQEND
  5
84
100
AcDbEntity
  8
Solder_Pad_1_Top
  0
HATCH
  5
85
100
AcDbEntity
  8
Solder_Pad_1_Top
100
AcDbHatch
 10
0.0
 20
0.0
 30
0.0
210
0.0
220
0.0
230
1.0
  2
SOLID
 70
       1
 71
       1
 91
        1
 92
        1
 93
        3
 72
       1
 10
16.482040000000001
 20
22.00001
 11
17.75
 21
21.267959999999999
 72
       1
 10
17.75
 20
21.267959999999999
 11
19.017959999999999
 21
22.00001
 72
       1
 10
19.017959999999999
 20
22.00001
 11
16.482040000000001
 21
22.00001
 97
        0
 75
       0
 76
       2
 98
        1
 10
0.0
 20
0.0
  0
POLYLINE
  5
86
100
AcDbEntity
  8
Solder_Pad_1_Top
100
AcDb2dPolyline
 66
       1
 10
0.0
 20
0.0
 30
0.0
 70
       1
  0
VERTEX
  5
87
100
AcDbEntity
  8
Solder_Pad_1_Top
100
AcDbVertex
100
AcDb2dVertex
 10
19.01796
 20
22.00001
  0
VERTEX
  5
88
100
AcDbEntity
  8
Solder_Pad_1_Top
100
AcDbVertex
100
AcDb2dVertex
 10
19.01796
 20
22.00001
  0
VERTEX
  5
89
100
AcDbEntity
  8
Solder_Pad_1_Top
100
AcDbVertex
100
AcDb2dVertex
 10
17.75
 20
21.26796
  0
VERTEX
  5
8A
100
AcDbEntity
  8
Solder_Pad_1_Top
100
AcDbVertex
100
AcDb2dVertex
 10
16.48204
 20
22.00001
  0
VERTEX
  5
8B
100
AcDbEntity
  8
Solder_Pad_1_Top
100
AcDbVertex
100
AcDb2dVertex
 10
19.01796
 20
22.00001
  0
SEQEND
  5
8C
100
AcDbEntity
  8
Solder_Pad_1_Top
  0
HATCH
  5
8D
100
AcDbEntity
  8
Solder_Pad_1_Top
100
AcDbHatch
 10
0.0
 20
0.0
 30
0.0
210
0.0
220
0.0
230
1.0
  2
SOLID
 70
       1
 71
       1
 91
        1
 92
        1
 93
        3
 72
       1
 10
12.98204
 20
22.00001
 11
14.25
 21
21.267959999999999
 72
       1
 10
14.25
 20
21.267959999999999
 11
15.51796
 21
22.00001
 72
       1
 10
15.51796
 20
22.00001
 11
12.98204
 21
22.00001
 97
        0
 75
       0
 76
       2
 98
        1
 10
0.0
 20
0.0
  0
POLYLINE
  5
8E
100
AcDbEntity
  8
Solder_Pad_1_Top
100
AcDb2dPolyline
 66
       1
 10
0.0
 20
0.0
 30
0.0
 70
       1
  0
VERTEX
  5
8F
100
AcDbEntity
  8
Solder_Pad_1_Top
100
AcDbVertex
100
AcDb2dVertex
 10
15.51796
 20
22.00001
  0
VERTEX
  5
90
100
AcDbEntity
  8
Solder_Pad_1_Top
100
AcDbVertex
100
AcDb2dVertex
 10
15.51796
 20
22.00001
  0
VERTEX
  5
91
100
AcDbEntity
  8
Solder_Pad_1_Top
100
AcDbVertex
100
AcDb2dVertex
 10
14.25
 20
21.26796
  0
VERTEX
  5
92
100
AcDbEntity
  8
Solder_Pad_1_Top
100
AcDbVertex
100
AcDb2dVertex
 10
12.98204
 20
22.00001
  0
VERTEX
  5
93
100
AcDbEntity
  8
Solder_Pad_1_Top
100
AcDbVertex
100
AcDb2dVertex
 10
15.51796
 20
22.00001
  0
SEQEND
  5
94
100
AcDbEntity
  8
Solder_Pad_1_Top
  0
HATCH
  5
95
100
AcDbEntity
  8
Solder_Pad_1_Top
100
AcDbHatch
 10
0.0
 20
0.0
 30
0.0
210
0.0
220
0.0
230
1.0
  2
SOLID
 70
       1
 71
       1
 91
        1
 92
        1
 93
        3
 72
       1
 10
9.4820399999999996
 20
22.00001
 11
10.75
 21
21.267959999999999
 72
       1
 10
10.75
 20
21.267959999999999
 11
12.01796
 21
22.00001
 72
       1
 10
12.01796
 20
22.00001
 11
9.4820399999999996
 21
22.00001
 97
        0
 75
       0
 76
       2
 98
        1
 10
0.0
 20
0.0
  0
POLYLINE
  5
96
100
AcDbEntity
  8
Solder_Pad_1_Top
100
AcDb2dPolyline
 66
       1
 10
0.0
 20
0.0
 30
0.0
 70
       1
  0
VERTEX
  5
97
100
AcDbEntity
  8
Solder_Pad_1_Top
100
AcDbVertex
100
AcDb2dVertex
 10
12.01796
 20
22.00001
  0
VERTEX
  5
98
100
AcDbEntity
  8
Solder_Pad_1_Top
100
AcDbVertex
100
AcDb2dVertex
 10
12.01796
 20
22.00001
  0
VERTEX
  5
99
100
AcDbEntity
  8
Solder_Pad_1_Top
100
AcDbVertex
100
AcDb2dVertex
 10
10.75
 20
21.26796
  0
VERTEX
  5
9A
100
AcDbEntity
  8
Solder_Pad_1_Top
100
AcDbVertex
100
AcDb2dVertex
 10
9.48204
 20
22.00001
  0
VERTEX
  5
9B
100
AcDbEntity
  8
Solder_Pad_1_Top
100
AcDbVertex
100
AcDb2dVertex
 10
12.01796
 20
22.00001
  0
SEQEND
  5
9C
100
AcDbEntity
  8
Solder_Pad_1_Top
  0
HATCH
  5
9D
100
AcDbEntity
  8
Solder_Pad_1_Top
100
AcDbHatch
 10
0.0
 20
0.0
 30
0.0
210
0.0
220
0.0
230
1.0
  2
SOLID
 70
       1
 71
       1
 91
        1
 92
        1
 93
        3
 72
       1
 10
5.9820399999999996
 20
22.00001
 11
7.25
 21
21.267959999999999
 72
       1
 10
7.25
 20
21.267959999999999
 11
8.5179600000000004
 21
22.00001
 72
       1
 10
8.5179600000000004
 20
22.00001
 11
5.9820399999999996
 21
22.00001
 97
        0
 75
       0
 76
       2
 98
        1
 10
0.0
 20
0.0
  0
POLYLINE
  5
9E
100
AcDbEntity
  8
Solder_Pad_1_Top
100
AcDb2dPolyline
 66
       1
 10
0.0
 20
0.0
 30
0.0
 70
       1
  0
VERTEX
  5
9F
100
AcDbEntity
  8
Solder_Pad_1_Top
100
AcDbVertex
100
AcDb2dVertex
 10
8.51796
 20
22.00001
  0
VERTEX
  5
A0
100
AcDbEntity
  8
Solder_Pad_1_Top
100
AcDbVertex
100
AcDb2dVertex
 10
8.51796
 20
22.00001
  0
VERTEX
  5
A1
100
AcDbEntity
  8
Solder_Pad_1_Top
100
AcDbVertex
100
AcDb2dVertex
 10
7.25
 20
21.26796
  0
VERTEX
  5
A2
100
AcDbEntity
  8
Solder_Pad_1_Top
100
AcDbVertex
100
AcDb2dVertex
 10
5.98204
 20
22.00001
  0
VERTEX
  5
A3
100
AcDbEntity
  8
Solder_Pad_1_Top
100
AcDbVertex
100
AcDb2dVertex
 10
8.51796
 20
22.00001
  0
SEQEND
  5
A4
100
AcDbEntity
  8
Solder_Pad_1_Top
  0
HATCH
  5
A5
100
AcDbEntity
  8
Solder_Pad_1_Top
100
AcDbHatch
 10
0.0
 20
0.0
 30
0.0
210
0.0
220
0.0
230
1.0
  2
SOLID
 70
       1
 71
       1
 91
        1
 92
        1
 93
        3
 72
       1
 10
2.48204
 20
22.00001
 11
3.75
 21
21.267959999999999
 72
       1
 10
3.75
 20
21.267959999999999
 11
5.0179600000000004
 21
22.00001
 72
       1
 10
5.0179600000000004
 20
22.00001
 11
2.48204
 21
22.00001
 97
        0
 75
       0
 76
       2
 98
        1
 10
0.0
 20
0.0
  0
POLYLINE
  5
A6
100
AcDbEntity
  8
Solder_Pad_1_Top
100
AcDb2dPolyline
 66
       1
 10
0.0
 20
0.0
 30
0.0
 70
       1
  0
VERTEX
  5
A7
100
AcDbEntity
  8
Solder_Pad_1_Top
100
AcDbVertex
100
AcDb2dVertex
 10
5.01796
 20
22.00001
  0
VERTEX
  5
A8
100
AcDbEntity
  8
Solder_Pad_1_Top
100
AcDbVertex
100
AcDb2dVertex
 10
5.01796
 20
22.00001
  0
VERTEX
  5
A9
100
AcDbEntity
  8
Solder_Pad_1_Top
100
AcDbVertex
100
AcDb2dVertex
 10
3.75
 20
21.26796
  0
VERTEX
  5
AA
100
AcDbEntity
  8
Solder_Pad_1_Top
100
AcDbVertex
100
AcDb2dVertex
 10
2.48204
 20
22.00001
  0
VERTEX
  5
AB
100
AcDbEntity
  8
Solder_Pad_1_Top
100
AcDbVertex
100
AcDb2dVertex
 10
5.01796
 20
22.00001
  0
SEQEND
  5
AC
100
AcDbEntity
  8
Solder_Pad_1_Top
  0
HATCH
  5
AD
100
AcDbEntity
  8
Solder_Pad_1_Top
100
AcDbHatch
 10
0.0
 20
0.0
 30
0.0
210
0.0
220
0.0
230
1.0
  2
SOLID
 70
       1
 71
       1
 91
        1
 92
        1
 93
        6
 72
       1
 10
0.0
 20
3.41229
 11
0.25
 21
3.2679499999999999
 72
       1
 10
0.25
 20
3.2679499999999999
 11
1.75
 21
4.1339800000000002
 72
       1
 10
1.75
 20
4.1339800000000002
 11
1.75
 21
5.8660300000000003
 72
       1
 10
1.75
 20
5.8660300000000003
 11
0.25
 21
6.7320500000000001
 72
       1
 10
0.25
 20
6.7320500000000001
 11
0.0
 21
6.5877100000000004
 72
       1
 10
0.0
 20
6.5877100000000004
 11
0.0
 21
3.41229
 97
        0
 75
       0
 76
       2
 98
        1
 10
0.0
 20
0.0
  0
POLYLINE
  5
AE
100
AcDbEntity
  8
Solder_Pad_1_Top
100
AcDb2dPolyline
 66
       1
 10
0.0
 20
0.0
 30
0.0
 70
       1
  0
VERTEX
  5
AF
100
AcDbEntity
  8
Solder_Pad_1_Top
100
AcDbVertex
100
AcDb2dVertex
 10
0.0
 20
3.41229
  0
VERTEX
  5
B0
100
AcDbEntity
  8
Solder_Pad_1_Top
100
AcDbVertex
100
AcDb2dVertex
 10
0.0
 20
3.41229
  0
VERTEX
  5
B1
100
AcDbEntity
  8
Solder_Pad_1_Top
100
AcDbVertex
100
AcDb2dVertex
 10
0.25
 20
3.26795
  0
VERTEX
  5
B2
100
AcDbEntity
  8
Solder_Pad_1_Top
100
AcDbVertex
100
AcDb2dVertex
 10
1.75
 20
4.13398
  0
VERTEX
  5
B3
100
AcDbEntity
  8
Solder_Pad_1_Top
100
AcDbVertex
100
AcDb2dVertex
 10
1.75
 20
5.86603
  0
VERTEX
  5
B4
100
AcDbEntity
  8
Solder_Pad_1_Top
100
AcDbVertex
100
AcDb2dVertex
 10
0.25
 20
6.73205
  0
VERTEX
  5
B5
100
AcDbEntity
  8
Solder_Pad_1_Top
100
AcDbVertex
100
AcDb2dVertex
 10
0.0
 20
6.58771
  0
VERTEX
  5
B6
100
AcDbEntity
  8
Solder_Pad_1_Top
100
AcDbVertex
100
AcDb2dVertex
 10
0.0
 20
3.41229
  0
SEQEND
  5
B7
100
AcDbEntity
  8
Solder_Pad_1_Top
  0
HATCH
  5
B8
100
AcDbEntity
  8
Solder_Pad_1_Top
100
AcDbHatch
 10
0.0
 20
0.0
 30
0.0
210
0.0
220
0.0
230
1.0
  2
SOLID
 70
       1
 71
       1
 91
        1
 92
        1
 93
        6
 72
       1
 10
0.0
 20
9.4122900000000005
 11
0.25
 21
9.2679500000000008
 72
       1
 10
0.25
 20
9.2679500000000008
 11
1.75
 21
10.133979999999999
 72
       1
 10
1.75
 20
10.133979999999999
 11
1.75
 21
11.86603
 72
       1
 10
1.75
 20
11.86603
 11
0.25
 21
12.732049999999999
 72
       1
 10
0.25
 20
12.732049999999999
 11
0.0
 21
12.58771
 72
       1
 10
0.0
 20
12.58771
 11
0.0
 21
9.4122900000000005
 97
        0
 75
       0
 76
       2
 98
        1
 10
0.0
 20
0.0
  0
POLYLINE
  5
B9
100
AcDbEntity
  8
Solder_Pad_1_Top
100
AcDb2dPolyline
 66
       1
 10
0.0
 20
0.0
 30
0.0
 70
       1
  0
VERTEX
  5
BA
100
AcDbEntity
  8
Solder_Pad_1_Top
100
AcDbVertex
100
AcDb2dVertex
 10
0.0
 20
9.41229
  0
VERTEX
  5
BB
100
AcDbEntity
  8
Solder_Pad_1_Top
100
AcDbVertex
100
AcDb2dVertex
 10
0.0
 20
9.41229
  0
VERTEX
  5
BC
100
AcDbEntity
  8
Solder_Pad_1_Top
100
AcDbVertex
100
AcDb2dVertex
 10
0.25
 20
9.26795
  0
VERTEX
  5
BD
100
AcDbEntity
  8
Solder_Pad_1_Top
100
AcDbVertex
100
AcDb2dVertex
 10
1.75
 20
10.13398
  0
VERTEX
  5
BE
100
AcDbEntity
  8
Solder_Pad_1_Top
100
AcDbVertex
100
AcDb2dVertex
 10
1.75
 20
11.86603
  0
VERTEX
  5
BF
100
AcDbEntity
  8
Solder_Pad_1_Top
100
AcDbVertex
100
AcDb2dVertex
 10
0.25
 20
12.73205
  0
VERTEX
  5
C0
100
AcDbEntity
  8
Solder_Pad_1_Top
100
AcDbVertex
100
AcDb2dVertex
 10
0.0
 20
12.58771
  0
VERTEX
  5
C1
100
AcDbEntity
  8
Solder_Pad_1_Top
100
AcDbVertex
100
AcDb2dVertex
 10
0.0
 20
9.41229
  0
SEQEND
  5
C2
100
AcDbEntity
  8
Solder_Pad_1_Top
  0
HATCH
  5
C3
100
AcDbEntity
  8
Solder_Pad_1_Top
100
AcDbHatch
 10
0.0
 20
0.0
 30
0.0
210
0.0
220
0.0
230
1.0
  2
SOLID
 70
       1
 71
       1
 91
        1
 92
        1
 93
        6
 72
       1
 10
0.5
 20
7.1339800000000002
 11
2.0
 21
6.2679499999999999
 72
       1
 10
2.0
 20
6.2679499999999999
 11
3.5
 21
7.1339800000000002
 72
       1
 10
3.5
 20
7.1339800000000002
 11
3.5
 21
8.8660300000000003
 72
       1
 10
3.5
 20
8.8660300000000003
 11
2.0
 21
9.7320499999999992
 72
       1
 10
2.0
 20
9.7320499999999992
 11
0.5
 21
8.8660300000000003
 72
       1
 10
0.5
 20
8.8660300000000003
 11
0.5
 21
7.1339800000000002
 97
        0
 75
       0
 76
       2
 98
        1
 10
0.0
 20
0.0
  0
POLYLINE
  5
C4
100
AcDbEntity
  8
Solder_Pad_1_Top
100
AcDb2dPolyline
 66
       1
 10
0.0
 20
0.0
 30
0.0
 70
       1
  0
VERTEX
  5
C5
100
AcDbEntity
  8
Solder_Pad_1_Top
100
AcDbVertex
100
AcDb2dVertex
 10
0.5
 20
8.86603
  0
VERTEX
  5
C6
100
AcDbEntity
  8
Solder_Pad_1_Top
100
AcDbVertex
100
AcDb2dVertex
 10
0.5
 20
8.86603
  0
VERTEX
  5
C7
100
AcDbEntity
  8
Solder_Pad_1_Top
100
AcDbVertex
100
AcDb2dVertex
 10
2.0
 20
9.73205
  0
VERTEX
  5
C8
100
AcDbEntity
  8
Solder_Pad_1_Top
100
AcDbVertex
100
AcDb2dVertex
 10
3.5
 20
8.86603
  0
VERTEX
  5
C9
100
AcDbEntity
  8
Solder_Pad_1_Top
100
AcDbVertex
100
AcDb2dVertex
 10
3.5
 20
7.13398
  0
VERTEX
  5
CA
100
AcDbEntity
  8
Solder_Pad_1_Top
100
AcDbVertex
100
AcDb2dVertex
 10
2.0
 20
6.26795
  0
VERTEX
  5
CB
100
AcDbEntity
  8
Solder_Pad_1_Top
100
AcDbVertex
100
AcDb2dVertex
 10
0.5
 20
7.13398
  0
VERTEX
  5
CC
100
AcDbEntity
  8
Solder_Pad_1_Top
100
AcDbVertex
100
AcDb2dVertex
 10
0.5
 20
8.86603
  0
SEQEND
  5
CD
100
AcDbEntity
  8
Solder_Pad_1_Top
  0
HATCH
  5
CE
100
AcDbEntity
  8
Solder_Pad_1_Top
100
AcDbHatch
 10
0.0
 20
0.0
 30
0.0
210
0.0
220
0.0
230
1.0
  2
SOLID
 70
       1
 71
       1
 91
        1
 92
        1
 93
        6
 72
       1
 10
2.25
 20
4.1339800000000002
 11
3.75
 21
3.2679499999999999
 72
       1
 10
3.75
 20
3.2679499999999999
 11
5.25
 21
4.1339800000000002
 72
       1
 10
5.25
 20
4.1339800000000002
 11
5.25
 21
5.8660300000000003
 72
       1
 10
5.25
 20
5.8660300000000003
 11
3.75
 21
6.7320500000000001
 72
       1
 10
3.75
 20
6.7320500000000001
 11
2.25
 21
5.8660300000000003
 72
       1
 10
2.25
 20
5.8660300000000003
 11
2.25
 21
4.1339800000000002
 97
        0
 75
       0
 76
       2
 98
        1
 10
0.0
 20
0.0
  0
POLYLINE
  5
CF
100
AcDbEntity
  8
Solder_Pad_1_Top
100
AcDb2dPolyline
 66
       1
 10
0.0
 20
0.0
 30
0.0
 70
       1
  0
VERTEX
  5
D0
100
AcDbEntity
  8
Solder_Pad_1_Top
100
AcDbVertex
100
AcDb2dVertex
 10
2.25
 20
5.86603
  0
VERTEX
  5
D1
100
AcDbEntity
  8
Solder_Pad_1_Top
100
AcDbVertex
100
AcDb2dVertex
 10
2.25
 20
5.86603
  0
VERTEX
  5
D2
100
AcDbEntity
  8
Solder_Pad_1_Top
100
AcDbVertex
100
AcDb2dVertex
 10
3.75
 20
6.73205
  0
VERTEX
  5
D3
100
AcDbEntity
  8
Solder_Pad_1_Top
100
AcDbVertex
100
AcDb2dVertex
 10
5.25
 20
5.86603
  0
VERTEX
  5
D4
100
AcDbEntity
  8
Solder_Pad_1_Top
100
AcDbVertex
100
AcDb2dVertex
 10
5.25
 20
4.13398
  0
VERTEX
  5
D5
100
AcDbEntity
  8
Solder_Pad_1_Top
100
AcDbVertex
100
AcDb2dVertex
 10
3.75
 20
3.26795
  0
VERTEX
  5
D6
100
AcDbEntity
  8
Solder_Pad_1_Top
100
AcDbVertex
100
AcDb2dVertex
 10
2.25
 20
4.13398
  0
VERTEX
  5
D7
100
AcDbEntity
  8
Solder_Pad_1_Top
100
AcDbVertex
100
AcDb2dVertex
 10
2.25
 20
5.86603
  0
SEQEND
  5
D8
100
AcDbEntity
  8
Solder_Pad_1_Top
  0
HATCH
  5
D9
100
AcDbEntity
  8
Solder_Pad_1_Top
100
AcDbHatch
 10
0.0
 20
0.0
 30
0.0
210
0.0
220
0.0
230
1.0
  2
SOLID
 70
       1
 71
       1
 91
        1
 92
        1
 93
        6
 72
       1
 10
0.5
 20
13.133979999999999
 11
2.0
 21
12.267950000000001
 72
       1
 10
2.0
 20
12.267950000000001
 11
3.5
 21
13.133979999999999
 72
       1
 10
3.5
 20
13.133979999999999
 11
3.5
 21
14.86603
 72
       1
 10
3.5
 20
14.86603
 11
2.0
 21
15.732049999999999
 72
       1
 10
2.0
 20
15.732049999999999
 11
0.5
 21
14.86603
 72
       1
 10
0.5
 20
14.86603
 11
0.5
 21
13.133979999999999
 97
        0
 75
       0
 76
       2
 98
        1
 10
0.0
 20
0.0
  0
POLYLINE
  5
DA
100
AcDbEntity
  8
Solder_Pad_1_Top
100
AcDb2dPolyline
 66
       1
 10
0.0
 20
0.0
 30
0.0
 70
       1
  0
VERTEX
  5
DB
100
AcDbEntity
  8
Solder_Pad_1_Top
100
AcDbVertex
100
AcDb2dVertex
 10
0.5
 20
14.86603
  0
VERTEX
  5
DC
100
AcDbEntity
  8
Solder_Pad_1_Top
100
AcDbVertex
100
AcDb2dVertex
 10
0.5
 20
14.86603
  0
VERTEX
  5
DD
100
AcDbEntity
  8
Solder_Pad_1_Top
100
AcDbVertex
100
AcDb2dVertex
 10
2.0
 20
15.73205
  0
VERTEX
  5
DE
100
AcDbEntity
  8
Solder_Pad_1_Top
100
AcDbVertex
100
AcDb2dVertex
 10
3.5
 20
14.86603
  0
VERTEX
  5
DF
100
AcDbEntity
  8
Solder_Pad_1_Top
100
AcDbVertex
100
AcDb2dVertex
 10
3.5
 20
13.13398
  0
VERTEX
  5
E0
100
AcDbEntity
  8
Solder_Pad_1_Top
100
AcDbVertex
100
AcDb2dVertex
 10
2.0
 20
12.26795
  0
VERTEX
  5
E1
100
AcDbEntity
  8
Solder_Pad_1_Top
100
AcDbVertex
100
AcDb2dVertex
 10
0.5
 20
13.13398
  0
VERTEX
  5
E2
100
AcDbEntity
  8
Solder_Pad_1_Top
100
AcDbVertex
100
AcDb2dVertex
 10
0.5
 20
14.86603
  0
SEQEND
  5
E3
100
AcDbEntity
  8
Solder_Pad_1_Top
  0
HATCH
  5
E4
100
AcDbEntity
  8
Solder_Pad_1_Top
100
AcDbHatch
 10
0.0
 20
0.0
 30
0.0
210
0.0
220
0.0
230
1.0
  2
SOLID
 70
       1
 71
       1
 91
        1
 92
        1
 93
        6
 72
       1
 10
2.25
 20
10.133979999999999
 11
3.75
 21
9.2679500000000008
 72
       1
 10
3.75
 20
9.2679500000000008
 11
5.25
 21
10.133979999999999
 72
       1
 10
5.25
 20
10.133979999999999
 11
5.25
 21
11.86603
 72
       1
 10
5.25
 20
11.86603
 11
3.75
 21
12.732049999999999
 72
       1
 10
3.75
 20
12.732049999999999
 11
2.25
 21
11.86603
 72
       1
 10
2.25
 20
11.86603
 11
2.25
 21
10.133979999999999
 97
        0
 75
       0
 76
       2
 98
        1
 10
0.0
 20
0.0
  0
POLYLINE
  5
E5
100
AcDbEntity
  8
Solder_Pad_1_Top
100
AcDb2dPolyline
 66
       1
 10
0.0
 20
0.0
 30
0.0
 70
       1
  0
VERTEX
  5
E6
100
AcDbEntity
  8
Solder_Pad_1_Top
100
AcDbVertex
100
AcDb2dVertex
 10
2.25
 20
11.86603
  0
VERTEX
  5
E7
100
AcDbEntity
  8
Solder_Pad_1_Top
100
AcDbVertex
100
AcDb2dVertex
 10
2.25
 20
11.86603
  0
VERTEX
  5
E8
100
AcDbEntity
  8
Solder_Pad_1_Top
100
AcDbVertex
100
AcDb2dVertex
 10
3.75
 20
12.73205
  0
VERTEX
  5
E9
100
AcDbEntity
  8
Solder_Pad_1_Top
100
AcDbVertex
100
AcDb2dVertex
 10
5.25
 20
11.86603
  0
VERTEX
  5
EA
100
AcDbEntity
  8
Solder_Pad_1_Top
100
AcDbVertex
100
AcDb2dVertex
 10
5.25
 20
10.13398
  0
VERTEX
  5
EB
100
AcDbEntity
  8
Solder_Pad_1_Top
100
AcDbVertex
100
AcDb2dVertex
 10
3.75
 20
9.26795
  0
VERTEX
  5
EC
100
AcDbEntity
  8
Solder_Pad_1_Top
100
AcDbVertex
100
AcDb2dVertex
 10
2.25
 20
10.13398
  0
VERTEX
  5
ED
100
AcDbEntity
  8
Solder_Pad_1_Top
100
AcDbVertex
100
AcDb2dVertex
 10
2.25
 20
11.86603
  0
SEQEND
  5
EE
100
AcDbEntity
  8
Solder_Pad_1_Top
  0
HATCH
  5
EF
100
AcDbEntity
  8
Solder_Pad_1_Top
100
AcDbHatch
 10
0.0
 20
0.0
 30
0.0
210
0.0
220
0.0
230
1.0
  2
SOLID
 70
       1
 71
       1
 91
        1
 92
        1
 93
        6
 72
       1
 10
0.5
 20
19.133980000000001
 11
2.0
 21
18.267949999999999
 72
       1
 10
2.0
 20
18.267949999999999
 11
3.5
 21
19.133980000000001
 72
       1
 10
3.5
 20
19.133980000000001
 11
3.5
 21
20.866029999999999
 72
       1
 10
3.5
 20
20.866029999999999
 11
2.0
 21
21.732050000000001
 72
       1
 10
2.0
 20
21.732050000000001
 11
0.5
 21
20.866029999999999
 72
       1
 10
0.5
 20
20.866029999999999
 11
0.5
 21
19.133980000000001
 97
        0
 75
       0
 76
       2
 98
        1
 10
0.0
 20
0.0
  0
POLYLINE
  5
F0
100
AcDbEntity
  8
Solder_Pad_1_Top
100
AcDb2dPolyline
 66
       1
 10
0.0
 20
0.0
 30
0.0
 70
       1
  0
VERTEX
  5
F1
100
AcDbEntity
  8
Solder_Pad_1_Top
100
AcDbVertex
100
AcDb2dVertex
 10
0.5
 20
20.86603
  0
VERTEX
  5
F2
100
AcDbEntity
  8
Solder_Pad_1_Top
100
AcDbVertex
100
AcDb2dVertex
 10
0.5
 20
20.86603
  0
VERTEX
  5
F3
100
AcDbEntity
  8
Solder_Pad_1_Top
100
AcDbVertex
100
AcDb2dVertex
 10
2.0
 20
21.73205
  0
VERTEX
  5
F4
100
AcDbEntity
  8
Solder_Pad_1_Top
100
AcDbVertex
100
AcDb2dVertex
 10
3.5
 20
20.86603
  0
VERTEX
  5
F5
100
AcDbEntity
  8
Solder_Pad_1_Top
100
AcDbVertex
100
AcDb2dVertex
 10
3.5
 20
19.13398
  0
VERTEX
  5
F6
100
AcDbEntity
  8
Solder_Pad_1_Top
100
AcDbVertex
100
AcDb2dVertex
 10
2.0
 20
18.26795
  0
VERTEX
  5
F7
100
AcDbEntity
  8
Solder_Pad_1_Top
100
AcDbVertex
100
AcDb2dVertex
 10
0.5
 20
19.13398
  0
VERTEX
  5
F8
100
AcDbEntity
  8
Solder_Pad_1_Top
100
AcDbVertex
100
AcDb2dVertex
 10
0.5
 20
20.86603
  0
SEQEND
  5
F9
100
AcDbEntity
  8
Solder_Pad_1_Top
  0
HATCH
  5
FA
100
AcDbEntity
  8
Solder_Pad_1_Top
100
AcDbHatch
 10
0.0
 20
0.0
 30
0.0
210
0.0
220
0.0
230
1.0
  2
SOLID
 70
       1
 71
       1
 91
        1
 92
        1
 93
        6
 72
       1
 10
7.5
 20
19.133980000000001
 11
9.0
 21
18.267949999999999
 72
       1
 10
9.0
 20
18.267949999999999
 11
10.5
 21
19.133980000000001
 72
       1
 10
10.5
 20
19.133980000000001
 11
10.5
 21
20.866029999999999
 72
       1
 10
10.5
 20
20.866029999999999
 11
9.0
 21
21.732050000000001
 72
       1
 10
9.0
 20
21.732050000000001
 11
7.5
 21
20.866029999999999
 72
       1
 10
7.5
 20
20.866029999999999
 11
7.5
 21
19.133980000000001
 97
        0
 75
       0
 76
       2
 98
        1
 10
0.0
 20
0.0
  0
POLYLINE
  5
FB
100
AcDbEntity
  8
Solder_Pad_1_Top
100
AcDb2dPolyline
 66
       1
 10
0.0
 20
0.0
 30
0.0
 70
       1
  0
VERTEX
  5
FC
100
AcDbEntity
  8
Solder_Pad_1_Top
100
AcDbVertex
100
AcDb2dVertex
 10
7.5
 20
20.86603
  0
VERTEX
  5
FD
100
AcDbEntity
  8
Solder_Pad_1_Top
100
AcDbVertex
100
AcDb2dVertex
 10
7.5
 20
20.86603
  0
VERTEX
  5
FE
100
AcDbEntity
  8
Solder_Pad_1_Top
100
AcDbVertex
100
AcDb2dVertex
 10
9.0
 20
21.73205
  0
VERTEX
  5
FF
100
AcDbEntity
  8
Solder_Pad_1_Top
100
AcDbVertex
100
AcDb2dVertex
 10
10.5
 20
20.86603
  0
VERTEX
  5
100
100
AcDbEntity
  8
Solder_Pad_1_Top
100
AcDbVertex
100
AcDb2dVertex
 10
10.5
 20
19.13398
  0
VERTEX
  5
101
100
AcDbEntity
  8
Solder_Pad_1_Top
100
AcDbVertex
100
AcDb2dVertex
 10
9.0
 20
18.26795
  0
VERTEX
  5
102
100
AcDbEntity
  8
Solder_Pad_1_Top
100
AcDbVertex
100
AcDb2dVertex
 10
7.5
 20
19.13398
  0
VERTEX
  5
103
100
AcDbEntity
  8
Solder_Pad_1_Top
100
AcDbVertex
100
AcDb2dVertex
 10
7.5
 20
20.86603
  0
SEQEND
  5
104
100
AcDbEntity
  8
Solder_Pad_1_Top
  0
HATCH
  5
105
100
AcDbEntity
  8
Solder_Pad_1_Top
100
AcDbHatch
 10
0.0
 20
0.0
 30
0.0
210
0.0
220
0.0
230
1.0
  2
SOLID
 70
       1
 71
       1
 91
        1
 92
        1
 93
        6
 72
       1
 10
11.0
 20
19.133980000000001
 11
12.5
 21
18.267949999999999
 72
       1
 10
12.5
 20
18.267949999999999
 11
14.0
 21
19.133980000000001
 72
       1
 10
14.0
 20
19.133980000000001
 11
14.0
 21
20.866029999999999
 72
       1
 10
14.0
 20
20.866029999999999
 11
12.5
 21
21.732050000000001
 72
       1
 10
12.5
 20
21.732050000000001
 11
11.0
 21
20.866029999999999
 72
       1
 10
11.0
 20
20.866029999999999
 11
11.0
 21
19.133980000000001
 97
        0
 75
       0
 76
       2
 98
        1
 10
0.0
 20
0.0
  0
POLYLINE
  5
106
100
AcDbEntity
  8
Solder_Pad_1_Top
100
AcDb2dPolyline
 66
       1
 10
0.0
 20
0.0
 30
0.0
 70
       1
  0
VERTEX
  5
107
100
AcDbEntity
  8
Solder_Pad_1_Top
100
AcDbVertex
100
AcDb2dVertex
 10
11.0
 20
20.86603
  0
VERTEX
  5
108
100
AcDbEntity
  8
Solder_Pad_1_Top
100
AcDbVertex
100
AcDb2dVertex
 10
11.0
 20
20.86603
  0
VERTEX
  5
109
100
AcDbEntity
  8
Solder_Pad_1_Top
100
AcDbVertex
100
AcDb2dVertex
 10
12.5
 20
21.73205
  0
VERTEX
  5
10A
100
AcDbEntity
  8
Solder_Pad_1_Top
100
AcDbVertex
100
AcDb2dVertex
 10
14.0
 20
20.86603
  0
VERTEX
  5
10B
100
AcDbEntity
  8
Solder_Pad_1_Top
100
AcDbVertex
100
AcDb2dVertex
 10
14.0
 20
19.13398
  0
VERTEX
  5
10C
100
AcDbEntity
  8
Solder_Pad_1_Top
100
AcDbVertex
100
AcDb2dVertex
 10
12.5
 20
18.26795
  0
VERTEX
  5
10D
100
AcDbEntity
  8
Solder_Pad_1_Top
100
AcDbVertex
100
AcDb2dVertex
 10
11.0
 20
19.13398
  0
VERTEX
  5
10E
100
AcDbEntity
  8
Solder_Pad_1_Top
100
AcDbVertex
100
AcDb2dVertex
 10
11.0
 20
20.86603
  0
SEQEND
  5
10F
100
AcDbEntity
  8
Solder_Pad_1_Top
  0
HATCH
  5
110
100
AcDbEntity
  8
Solder_Pad_1_Top
100
AcDbHatch
 10
0.0
 20
0.0
 30
0.0
210
0.0
220
0.0
230
1.0
  2
SOLID
 70
       1
 71
       1
 91
        1
 92
        1
 93
        6
 72
       1
 10
14.5
 20
19.133980000000001
 11
16.0
 21
18.267949999999999
 72
       1
 10
16.0
 20
18.267949999999999
 11
17.5
 21
19.133980000000001
 72
       1
 10
17.5
 20
19.133980000000001
 11
17.5
 21
20.866029999999999
 72
       1
 10
17.5
 20
20.866029999999999
 11
16.0
 21
21.732050000000001
 72
       1
 10
16.0
 20
21.732050000000001
 11
14.5
 21
20.866029999999999
 72
       1
 10
14.5
 20
20.866029999999999
 11
14.5
 21
19.133980000000001
 97
        0
 75
       0
 76
       2
 98
        1
 10
0.0
 20
0.0
  0
POLYLINE
  5
111
100
AcDbEntity
  8
Solder_Pad_1_Top
100
AcDb2dPolyline
 66
       1
 10
0.0
 20
0.0
 30
0.0
 70
       1
  0
VERTEX
  5
112
100
AcDbEntity
  8
Solder_Pad_1_Top
100
AcDbVertex
100
AcDb2dVertex
 10
14.5
 20
20.86603
  0
VERTEX
  5
113
100
AcDbEntity
  8
Solder_Pad_1_Top
100
AcDbVertex
100
AcDb2dVertex
 10
14.5
 20
20.86603
  0
VERTEX
  5
114
100
AcDbEntity
  8
Solder_Pad_1_Top
100
AcDbVertex
100
AcDb2dVertex
 10
16.0
 20
21.73205
  0
VERTEX
  5
115
100
AcDbEntity
  8
Solder_Pad_1_Top
100
AcDbVertex
100
AcDb2dVertex
 10
17.5
 20
20.86603
  0
VERTEX
  5
116
100
AcDbEntity
  8
Solder_Pad_1_Top
100
AcDbVertex
100
AcDb2dVertex
 10
17.5
 20
19.13398
  0
VERTEX
  5
117
100
AcDbEntity
  8
Solder_Pad_1_Top
100
AcDbVertex
100
AcDb2dVertex
 10
16.0
 20
18.26795
  0
VERTEX
  5
118
100
AcDbEntity
  8
Solder_Pad_1_Top
100
AcDbVertex
100
AcDb2dVertex
 10
14.5
 20
19.13398
  0
VERTEX
  5
119
100
AcDbEntity
  8
Solder_Pad_1_Top
100
AcDbVertex
100
AcDb2dVertex
 10
14.5
 20
20.86603
  0
SEQEND
  5
11A
100
AcDbEntity
  8
Solder_Pad_1_Top
  0
HATCH
  5
11B
100
AcDbEntity
  8
Solder_Pad_1_Top
100
AcDbHatch
 10
0.0
 20
0.0
 30
0.0
210
0.0
220
0.0
230
1.0
  2
SOLID
 70
       1
 71
       1
 91
        1
 92
        1
 93
        6
 72
       1
 10
18.0
 20
19.133980000000001
 11
19.5
 21
18.267949999999999
 72
       1
 10
19.5
 20
18.267949999999999
 11
21.0
 21
19.133980000000001
 72
       1
 10
21.0
 20
19.133980000000001
 11
21.0
 21
20.866029999999999
 72
       1
 10
21.0
 20
20.866029999999999
 11
19.5
 21
21.732050000000001
 72
       1
 10
19.5
 20
21.732050000000001
 11
18.0
 21
20.866029999999999
 72
       1
 10
18.0
 20
20.866029999999999
 11
18.0
 21
19.133980000000001
 97
        0
 75
       0
 76
       2
 98
        1
 10
0.0
 20
0.0
  0
POLYLINE
  5
11C
100
AcDbEntity
  8
Solder_Pad_1_Top
100
AcDb2dPolyline
 66
       1
 10
0.0
 20
0.0
 30
0.0
 70
       1
  0
VERTEX
  5
11D
100
AcDbEntity
  8
Solder_Pad_1_Top
100
AcDbVertex
100
AcDb2dVertex
 10
18.0
 20
20.86603
  0
VERTEX
  5
11E
100
AcDbEntity
  8
Solder_Pad_1_Top
100
AcDbVertex
100
AcDb2dVertex
 10
18.0
 20
20.86603
  0
VERTEX
  5
11F
100
AcDbEntity
  8
Solder_Pad_1_Top
100
AcDbVertex
100
AcDb2dVertex
 10
19.5
 20
21.73205
  0
VERTEX
  5
120
100
AcDbEntity
  8
Solder_Pad_1_Top
100
AcDbVertex
100
AcDb2dVertex
 10
21.0
 20
20.86603
  0
VERTEX
  5
121
100
AcDbEntity
  8
Solder_Pad_1_Top
100
AcDbVertex
100
AcDb2dVertex
 10
21.0
 20
19.13398
  0
VERTEX
  5
122
100
AcDbEntity
  8
Solder_Pad_1_Top
100
AcDbVertex
100
AcDb2dVertex
 10
19.5
 20
18.26795
  0
VERTEX
  5
123
100
AcDbEntity
  8
Solder_Pad_1_Top
100
AcDbVertex
100
AcDb2dVertex
 10
18.0
 20
19.13398
  0
VERTEX
  5
124
100
AcDbEntity
  8
Solder_Pad_1_Top
100
AcDbVertex
100
AcDb2dVertex
 10
18.0
 20
20.86603
  0
SEQEND
  5
125
100
AcDbEntity
  8
Solder_Pad_1_Top
  0
HATCH
  5
126
100
AcDbEntity
  8
Solder_Pad_1_Top
100
AcDbHatch
 10
0.0
 20
0.0
 30
0.0
210
0.0
220
0.0
230
1.0
  2
SOLID
 70
       1
 71
       1
 91
        1
 92
        1
 93
        6
 72
       1
 10
25.0
 20
19.133980000000001
 11
26.5
 21
18.267949999999999
 72
       1
 10
26.5
 20
18.267949999999999
 11
28.0
 21
19.133980000000001
 72
       1
 10
28.0
 20
19.133980000000001
 11
28.0
 21
20.866029999999999
 72
       1
 10
28.0
 20
20.866029999999999
 11
26.5
 21
21.732050000000001
 72
       1
 10
26.5
 20
21.732050000000001
 11
25.0
 21
20.866029999999999
 72
       1
 10
25.0
 20
20.866029999999999
 11
25.0
 21
19.133980000000001
 97
        0
 75
       0
 76
       2
 98
        1
 10
0.0
 20
0.0
  0
POLYLINE
  5
127
100
AcDbEntity
  8
Solder_Pad_1_Top
100
AcDb2dPolyline
 66
       1
 10
0.0
 20
0.0
 30
0.0
 70
       1
  0
VERTEX
  5
128
100
AcDbEntity
  8
Solder_Pad_1_Top
100
AcDbVertex
100
AcDb2dVertex
 10
25.0
 20
20.86603
  0
VERTEX
  5
129
100
AcDbEntity
  8
Solder_Pad_1_Top
100
AcDbVertex
100
AcDb2dVertex
 10
25.0
 20
20.86603
  0
VERTEX
  5
12A
100
AcDbEntity
  8
Solder_Pad_1_Top
100
AcDbVertex
100
AcDb2dVertex
 10
26.5
 20
21.73205
  0
VERTEX
  5
12B
100
AcDbEntity
  8
Solder_Pad_1_Top
100
AcDbVertex
100
AcDb2dVertex
 10
28.0
 20
20.86603
  0
VERTEX
  5
12C
100
AcDbEntity
  8
Solder_Pad_1_Top
100
AcDbVertex
100
AcDb2dVertex
 10
28.0
 20
19.13398
  0
VERTEX
  5
12D
100
AcDbEntity
  8
Solder_Pad_1_Top
100
AcDbVertex
100
AcDb2dVertex
 10
26.5
 20
18.26795
  0
VERTEX
  5
12E
100
AcDbEntity
  8
Solder_Pad_1_Top
100
AcDbVertex
100
AcDb2dVertex
 10
25.0
 20
19.13398
  0
VERTEX
  5
12F
100
AcDbEntity
  8
Solder_Pad_1_Top
100
AcDbVertex
100
AcDb2dVertex
 10
25.0
 20
20.86603
  0
SEQEND
  5
130
100
AcDbEntity
  8
Solder_Pad_1_Top
  0
HATCH
  5
131
100
AcDbEntity
  8
Solder_Pad_1_Top
100
AcDbHatch
 10
0.0
 20
0.0
 30
0.0
210
0.0
220
0.0
230
1.0
  2
SOLID
 70
       1
 71
       1
 91
        1
 92
        1
 93
        6
 72
       1
 10
28.5
 20
19.133980000000001
 11
30.0
 21
18.267949999999999
 72
       1
 10
30.0
 20
18.267949999999999
 11
31.5
 21
19.133980000000001
 72
       1
 10
31.5
 20
19.133980000000001
 11
31.5
 21
20.866029999999999
 72
       1
 10
31.5
 20
20.866029999999999
 11
30.0
 21
21.732050000000001
 72
       1
 10
30.0
 20
21.732050000000001
 11
28.5
 21
20.866029999999999
 72
       1
 10
28.5
 20
20.866029999999999
 11
28.5
 21
19.133980000000001
 97
        0
 75
       0
 76
       2
 98
        1
 10
0.0
 20
0.0
  0
POLYLINE
  5
132
100
AcDbEntity
  8
Solder_Pad_1_Top
100
AcDb2dPolyline
 66
       1
 10
0.0
 20
0.0
 30
0.0
 70
       1
  0
VERTEX
  5
133
100
AcDbEntity
  8
Solder_Pad_1_Top
100
AcDbVertex
100
AcDb2dVertex
 10
28.5
 20
20.86603
  0
VERTEX
  5
134
100
AcDbEntity
  8
Solder_Pad_1_Top
100
AcDbVertex
100
AcDb2dVertex
 10
28.5
 20
20.86603
  0
VERTEX
  5
135
100
AcDbEntity
  8
Solder_Pad_1_Top
100
AcDbVertex
100
AcDb2dVertex
 10
30.0
 20
21.73205
  0
VERTEX
  5
136
100
AcDbEntity
  8
Solder_Pad_1_Top
100
AcDbVertex
100
AcDb2dVertex
 10
31.5
 20
20.86603
  0
VERTEX
  5
137
100
AcDbEntity
  8
Solder_Pad_1_Top
100
AcDbVertex
100
AcDb2dVertex
 10
31.5
 20
19.13398
  0
VERTEX
  5
138
100
AcDbEntity
  8
Solder_Pad_1_Top
100
AcDbVertex
100
AcDb2dVertex
 10
30.0
 20
18.26795
  0
VERTEX
  5
139
100
AcDbEntity
  8
Solder_Pad_1_Top
100
AcDbVertex
100
AcDb2dVertex
 10
28.5
 20
19.13398
  0
VERTEX
  5
13A
100
AcDbEntity
  8
Solder_Pad_1_Top
100
AcDbVertex
100
AcDb2dVertex
 10
28.5
 20
20.86603
  0
SEQEND
  5
13B
100
AcDbEntity
  8
Solder_Pad_1_Top
  0
HATCH
  5
13C
100
AcDbEntity
  8
Solder_Pad_1_Top
100
AcDbHatch
 10
0.0
 20
0.0
 30
0.0
210
0.0
220
0.0
230
1.0
  2
SOLID
 70
       1
 71
       1
 91
        1
 92
        1
 93
        6
 72
       1
 10
32.0
 20
19.133980000000001
 11
33.5
 21
18.267949999999999
 72
       1
 10
33.5
 20
18.267949999999999
 11
35.0
 21
19.133980000000001
 72
       1
 10
35.0
 20
19.133980000000001
 11
35.0
 21
20.866029999999999
 72
       1
 10
35.0
 20
20.866029999999999
 11
33.5
 21
21.732050000000001
 72
       1
 10
33.5
 20
21.732050000000001
 11
32.0
 21
20.866029999999999
 72
       1
 10
32.0
 20
20.866029999999999
 11
32.0
 21
19.133980000000001
 97
        0
 75
       0
 76
       2
 98
        1
 10
0.0
 20
0.0
  0
POLYLINE
  5
13D
100
AcDbEntity
  8
Solder_Pad_1_Top
100
AcDb2dPolyline
 66
       1
 10
0.0
 20
0.0
 30
0.0
 70
       1
  0
VERTEX
  5
13E
100
AcDbEntity
  8
Solder_Pad_1_Top
100
AcDbVertex
100
AcDb2dVertex
 10
32.0
 20
20.86603
  0
VERTEX
  5
13F
100
AcDbEntity
  8
Solder_Pad_1_Top
100
AcDbVertex
100
AcDb2dVertex
 10
32.0
 20
20.86603
  0
VERTEX
  5
140
100
AcDbEntity
  8
Solder_Pad_1_Top
100
AcDbVertex
100
AcDb2dVertex
 10
33.5
 20
21.73205
  0
VERTEX
  5
141
100
AcDbEntity
  8
Solder_Pad_1_Top
100
AcDbVertex
100
AcDb2dVertex
 10
35.0
 20
20.86603
  0
VERTEX
  5
142
100
AcDbEntity
  8
Solder_Pad_1_Top
100
AcDbVertex
100
AcDb2dVertex
 10
35.0
 20
19.13398
  0
VERTEX
  5
143
100
AcDbEntity
  8
Solder_Pad_1_Top
100
AcDbVertex
100
AcDb2dVertex
 10
33.5
 20
18.26795
  0
VERTEX
  5
144
100
AcDbEntity
  8
Solder_Pad_1_Top
100
AcDbVertex
100
AcDb2dVertex
 10
32.0
 20
19.13398
  0
VERTEX
  5
145
100
AcDbEntity
  8
Solder_Pad_1_Top
100
AcDbVertex
100
AcDb2dVertex
 10
32.0
 20
20.86603
  0
SEQEND
  5
146
100
AcDbEntity
  8
Solder_Pad_1_Top
  0
HATCH
  5
147
100
AcDbEntity
  8
Solder_Pad_1_Top
100
AcDbHatch
 10
0.0
 20
0.0
 30
0.0
210
0.0
220
0.0
230
1.0
  2
SOLID
 70
       1
 71
       1
 91
        1
 92
        1
 93
        6
 72
       1
 10
35.5
 20
19.133980000000001
 11
37.0
 21
18.267949999999999
 72
       1
 10
37.0
 20
18.267949999999999
 11
38.5
 21
19.133980000000001
 72
       1
 10
38.5
 20
19.133980000000001
 11
38.5
 21
20.866029999999999
 72
       1
 10
38.5
 20
20.866029999999999
 11
37.0
 21
21.732050000000001
 72
       1
 10
37.0
 20
21.732050000000001
 11
35.5
 21
20.866029999999999
 72
       1
 10
35.5
 20
20.866029999999999
 11
35.5
 21
19.133980000000001
 97
        0
 75
       0
 76
       2
 98
        1
 10
0.0
 20
0.0
  0
POLYLINE
  5
148
100
AcDbEntity
  8
Solder_Pad_1_Top
100
AcDb2dPolyline
 66
       1
 10
0.0
 20
0.0
 30
0.0
 70
       1
  0
VERTEX
  5
149
100
AcDbEntity
  8
Solder_Pad_1_Top
100
AcDbVertex
100
AcDb2dVertex
 10
35.5
 20
20.86603
  0
VERTEX
  5
14A
100
AcDbEntity
  8
Solder_Pad_1_Top
100
AcDbVertex
100
AcDb2dVertex
 10
35.5
 20
20.86603
  0
VERTEX
  5
14B
100
AcDbEntity
  8
Solder_Pad_1_Top
100
AcDbVertex
100
AcDb2dVertex
 10
37.0
 20
21.73205
  0
VERTEX
  5
14C
100
AcDbEntity
  8
Solder_Pad_1_Top
100
AcDbVertex
100
AcDb2dVertex
 10
38.5
 20
20.86603
  0
VERTEX
  5
14D
100
AcDbEntity
  8
Solder_Pad_1_Top
100
AcDbVertex
100
AcDb2dVertex
 10
38.5
 20
19.13398
  0
VERTEX
  5
14E
100
AcDbEntity
  8
Solder_Pad_1_Top
100
AcDbVertex
100
AcDb2dVertex
 10
37.0
 20
18.26795
  0
VERTEX
  5
14F
100
AcDbEntity
  8
Solder_Pad_1_Top
100
AcDbVertex
100
AcDb2dVertex
 10
35.5
 20
19.13398
  0
VERTEX
  5
150
100
AcDbEntity
  8
Solder_Pad_1_Top
100
AcDbVertex
100
AcDb2dVertex
 10
35.5
 20
20.86603
  0
SEQEND
  5
151
100
AcDbEntity
  8
Solder_Pad_1_Top
  0
HATCH
  5
152
100
AcDbEntity
  8
Solder_Pad_1_Top
100
AcDbHatch
 10
0.0
 20
0.0
 30
0.0
210
0.0
220
0.0
230
1.0
  2
SOLID
 70
       1
 71
       1
 91
        1
 92
        1
 93
        6
 72
       1
 10
39.0
 20
19.133980000000001
 11
40.5
 21
18.267949999999999
 72
       1
 10
40.5
 20
18.267949999999999
 11
42.0
 21
19.133980000000001
 72
       1
 10
42.0
 20
19.133980000000001
 11
42.0
 21
20.866029999999999
 72
       1
 10
42.0
 20
20.866029999999999
 11
40.5
 21
21.732050000000001
 72
       1
 10
40.5
 20
21.732050000000001
 11
39.0
 21
20.866029999999999
 72
       1
 10
39.0
 20
20.866029999999999
 11
39.0
 21
19.133980000000001
 97
        0
 75
       0
 76
       2
 98
        1
 10
0.0
 20
0.0
  0
POLYLINE
  5
153
100
AcDbEntity
  8
Solder_Pad_1_Top
100
AcDb2dPolyline
 66
       1
 10
0.0
 20
0.0
 30
0.0
 70
       1
  0
VERTEX
  5
154
100
AcDbEntity
  8
Solder_Pad_1_Top
100
AcDbVertex
100
AcDb2dVertex
 10
39.0
 20
20.86603
  0
VERTEX
  5
155
100
AcDbEntity
  8
Solder_Pad_1_Top
100
AcDbVertex
100
AcDb2dVertex
 10
39.0
 20
20.86603
  0
VERTEX
  5
156
100
AcDbEntity
  8
Solder_Pad_1_Top
100
AcDbVertex
100
AcDb2dVertex
 10
40.5
 20
21.73205
  0
VERTEX
  5
157
100
AcDbEntity
  8
Solder_Pad_1_Top
100
AcDbVertex
100
AcDb2dVertex
 10
42.0
 20
20.86603
  0
VERTEX
  5
158
100
AcDbEntity
  8
Solder_Pad_1_Top
100
AcDbVertex
100
AcDb2dVertex
 10
42.0
 20
19.13398
  0
VERTEX
  5
159
100
AcDbEntity
  8
Solder_Pad_1_Top
100
AcDbVertex
100
AcDb2dVertex
 10
40.5
 20
18.26795
  0
VERTEX
  5
15A
100
AcDbEntity
  8
Solder_Pad_1_Top
100
AcDbVertex
100
AcDb2dVertex
 10
39.0
 20
19.13398
  0
VERTEX
  5
15B
100
AcDbEntity
  8
Solder_Pad_1_Top
100
AcDbVertex
100
AcDb2dVertex
 10
39.0
 20
20.86603
  0
SEQEND
  5
15C
100
AcDbEntity
  8
Solder_Pad_1_Top
  0
HATCH
  5
15D
100
AcDbEntity
  8
Solder_Pad_1_Top
100
AcDbHatch
 10
0.0
 20
0.0
 30
0.0
210
0.0
220
0.0
230
1.0
  2
SOLID
 70
       1
 71
       1
 91
        1
 92
        1
 93
        6
 72
       1
 10
42.5
 20
19.133980000000001
 11
44.0
 21
18.267949999999999
 72
       1
 10
44.0
 20
18.267949999999999
 11
45.5
 21
19.133980000000001
 72
       1
 10
45.5
 20
19.133980000000001
 11
45.5
 21
20.866029999999999
 72
       1
 10
45.5
 20
20.866029999999999
 11
44.0
 21
21.732050000000001
 72
       1
 10
44.0
 20
21.732050000000001
 11
42.5
 21
20.866029999999999
 72
       1
 10
42.5
 20
20.866029999999999
 11
42.5
 21
19.133980000000001
 97
        0
 75
       0
 76
       2
 98
        1
 10
0.0
 20
0.0
  0
POLYLINE
  5
15E
100
AcDbEntity
  8
Solder_Pad_1_Top
100
AcDb2dPolyline
 66
       1
 10
0.0
 20
0.0
 30
0.0
 70
       1
  0
VERTEX
  5
15F
100
AcDbEntity
  8
Solder_Pad_1_Top
100
AcDbVertex
100
AcDb2dVertex
 10
42.5
 20
20.86603
  0
VERTEX
  5
160
100
AcDbEntity
  8
Solder_Pad_1_Top
100
AcDbVertex
100
AcDb2dVertex
 10
42.5
 20
20.86603
  0
VERTEX
  5
161
100
AcDbEntity
  8
Solder_Pad_1_Top
100
AcDbVertex
100
AcDb2dVertex
 10
44.0
 20
21.73205
  0
VERTEX
  5
162
100
AcDbEntity
  8
Solder_Pad_1_Top
100
AcDbVertex
100
AcDb2dVertex
 10
45.5
 20
20.86603
  0
VERTEX
  5
163
100
AcDbEntity
  8
Solder_Pad_1_Top
100
AcDbVertex
100
AcDb2dVertex
 10
45.5
 20
19.13398
  0
VERTEX
  5
164
100
AcDbEntity
  8
Solder_Pad_1_Top
100
AcDbVertex
100
AcDb2dVertex
 10
44.0
 20
18.26795
  0
VERTEX
  5
165
100
AcDbEntity
  8
Solder_Pad_1_Top
100
AcDbVertex
100
AcDb2dVertex
 10
42.5
 20
19.13398
  0
VERTEX
  5
166
100
AcDbEntity
  8
Solder_Pad_1_Top
100
AcDbVertex
100
AcDb2dVertex
 10
42.5
 20
20.86603
  0
SEQEND
  5
167
100
AcDbEntity
  8
Solder_Pad_1_Top
  0
HATCH
  5
168
100
AcDbEntity
  8
Solder_Pad_1_Top
100
AcDbHatch
 10
0.0
 20
0.0
 30
0.0
210
0.0
220
0.0
230
1.0
  2
SOLID
 70
       1
 71
       1
 91
        1
 92
        1
 93
        6
 72
       1
 10
46.0
 20
19.133980000000001
 11
47.5
 21
18.267949999999999
 72
       1
 10
47.5
 20
18.267949999999999
 11
49.0
 21
19.133980000000001
 72
       1
 10
49.0
 20
19.133980000000001
 11
49.0
 21
20.866029999999999
 72
       1
 10
49.0
 20
20.866029999999999
 11
47.5
 21
21.732050000000001
 72
       1
 10
47.5
 20
21.732050000000001
 11
46.0
 21
20.866029999999999
 72
       1
 10
46.0
 20
20.866029999999999
 11
46.0
 21
19.133980000000001
 97
        0
 75
       0
 76
       2
 98
        1
 10
0.0
 20
0.0
  0
POLYLINE
  5
169
100
AcDbEntity
  8
Solder_Pad_1_Top
100
AcDb2dPolyline
 66
       1
 10
0.0
 20
0.0
 30
0.0
 70
       1
  0
VERTEX
  5
16A
100
AcDbEntity
  8
Solder_Pad_1_Top
100
AcDbVertex
100
AcDb2dVertex
 10
46.0
 20
20.86603
  0
VERTEX
  5
16B
100
AcDbEntity
  8
Solder_Pad_1_Top
100
AcDbVertex
100
AcDb2dVertex
 10
46.0
 20
20.86603
  0
VERTEX
  5
16C
100
AcDbEntity
  8
Solder_Pad_1_Top
100
AcDbVertex
100
AcDb2dVertex
 10
47.5
 20
21.73205
  0
VERTEX
  5
16D
100
AcDbEntity
  8
Solder_Pad_1_Top
100
AcDbVertex
100
AcDb2dVertex
 10
49.0
 20
20.86603
  0
VERTEX
  5
16E
100
AcDbEntity
  8
Solder_Pad_1_Top
100
AcDbVertex
100
AcDb2dVertex
 10
49.0
 20
19.13398
  0
VERTEX
  5
16F
100
AcDbEntity
  8
Solder_Pad_1_Top
100
AcDbVertex
100
AcDb2dVertex
 10
47.5
 20
18.26795
  0
VERTEX
  5
170
100
AcDbEntity
  8
Solder_Pad_1_Top
100
AcDbVertex
100
AcDb2dVertex
 10
46.0
 20
19.13398
  0
VERTEX
  5
171
100
AcDbEntity
  8
Solder_Pad_1_Top
100
AcDbVertex
100
AcDb2dVertex
 10
46.0
 20
20.86603
  0
SEQEND
  5
172
100
AcDbEntity
  8
Solder_Pad_1_Top
  0
HATCH
  5
173
100
AcDbEntity
  8
Solder_Pad_1_Top
100
AcDbHatch
 10
0.0
 20
0.0
 30
0.0
210
0.0
220
0.0
230
1.0
  2
SOLID
 70
       1
 71
       1
 91
        1
 92
        1
 93
        6
 72
       1
 10
49.5
 20
19.133980000000001
 11
51.0
 21
18.267949999999999
 72
       1
 10
51.0
 20
18.267949999999999
 11
52.5
 21
19.133980000000001
 72
       1
 10
52.5
 20
19.133980000000001
 11
52.5
 21
20.866029999999999
 72
       1
 10
52.5
 20
20.866029999999999
 11
51.0
 21
21.732050000000001
 72
       1
 10
51.0
 20
21.732050000000001
 11
49.5
 21
20.866029999999999
 72
       1
 10
49.5
 20
20.866029999999999
 11
49.5
 21
19.133980000000001
 97
        0
 75
       0
 76
       2
 98
        1
 10
0.0
 20
0.0
  0
POLYLINE
  5
174
100
AcDbEntity
  8
Solder_Pad_1_Top
100
AcDb2dPolyline
 66
       1
 10
0.0
 20
0.0
 30
0.0
 70
       1
  0
VERTEX
  5
175
100
AcDbEntity
  8
Solder_Pad_1_Top
100
AcDbVertex
100
AcDb2dVertex
 10
49.5
 20
20.86603
  0
VERTEX
  5
176
100
AcDbEntity
  8
Solder_Pad_1_Top
100
AcDbVertex
100
AcDb2dVertex
 10
49.5
 20
20.86603
  0
VERTEX
  5
177
100
AcDbEntity
  8
Solder_Pad_1_Top
100
AcDbVertex
100
AcDb2dVertex
 10
51.0
 20
21.73205
  0
VERTEX
  5
178
100
AcDbEntity
  8
Solder_Pad_1_Top
100
AcDbVertex
100
AcDb2dVertex
 10
52.5
 20
20.86603
  0
VERTEX
  5
179
100
AcDbEntity
  8
Solder_Pad_1_Top
100
AcDbVertex
100
AcDb2dVertex
 10
52.5
 20
19.13398
  0
VERTEX
  5
17A
100
AcDbEntity
  8
Solder_Pad_1_Top
100
AcDbVertex
100
AcDb2dVertex
 10
51.0
 20
18.26795
  0
VERTEX
  5
17B
100
AcDbEntity
  8
Solder_Pad_1_Top
100
AcDbVertex
100
AcDb2dVertex
 10
49.5
 20
19.13398
  0
VERTEX
  5
17C
100
AcDbEntity
  8
Solder_Pad_1_Top
100
AcDbVertex
100
AcDb2dVertex
 10
49.5
 20
20.86603
  0
SEQEND
  5
17D
100
AcDbEntity
  8
Solder_Pad_1_Top
  0
HATCH
  5
17E
100
AcDbEntity
  8
Solder_Pad_1_Top
100
AcDbHatch
 10
0.0
 20
0.0
 30
0.0
210
0.0
220
0.0
230
1.0
  2
SOLID
 70
       1
 71
       1
 91
        1
 92
        1
 93
        6
 72
       1
 10
53.0
 20
19.133980000000001
 11
54.5
 21
18.267949999999999
 72
       1
 10
54.5
 20
18.267949999999999
 11
56.0
 21
19.133980000000001
 72
       1
 10
56.0
 20
19.133980000000001
 11
56.0
 21
20.866029999999999
 72
       1
 10
56.0
 20
20.866029999999999
 11
54.5
 21
21.732050000000001
 72
       1
 10
54.5
 20
21.732050000000001
 11
53.0
 21
20.866029999999999
 72
       1
 10
53.0
 20
20.866029999999999
 11
53.0
 21
19.133980000000001
 97
        0
 75
       0
 76
       2
 98
        1
 10
0.0
 20
0.0
  0
POLYLINE
  5
17F
100
AcDbEntity
  8
Solder_Pad_1_Top
100
AcDb2dPolyline
 66
       1
 10
0.0
 20
0.0
 30
0.0
 70
       1
  0
VERTEX
  5
180
100
AcDbEntity
  8
Solder_Pad_1_Top
100
AcDbVertex
100
AcDb2dVertex
 10
53.0
 20
20.86603
  0
VERTEX
  5
181
100
AcDbEntity
  8
Solder_Pad_1_Top
100
AcDbVertex
100
AcDb2dVertex
 10
53.0
 20
20.86603
  0
VERTEX
  5
182
100
AcDbEntity
  8
Solder_Pad_1_Top
100
AcDbVertex
100
AcDb2dVertex
 10
54.5
 20
21.73205
  0
VERTEX
  5
183
100
AcDbEntity
  8
Solder_Pad_1_Top
100
AcDbVertex
100
AcDb2dVertex
 10
56.0
 20
20.86603
  0
VERTEX
  5
184
100
AcDbEntity
  8
Solder_Pad_1_Top
100
AcDbVertex
100
AcDb2dVertex
 10
56.0
 20
19.13398
  0
VERTEX
  5
185
100
AcDbEntity
  8
Solder_Pad_1_Top
100
AcDbVertex
100
AcDb2dVertex
 10
54.5
 20
18.26795
  0
VERTEX
  5
186
100
AcDbEntity
  8
Solder_Pad_1_Top
100
AcDbVertex
100
AcDb2dVertex
 10
53.0
 20
19.13398
  0
VERTEX
  5
187
100
AcDbEntity
  8
Solder_Pad_1_Top
100
AcDbVertex
100
AcDb2dVertex
 10
53.0
 20
20.86603
  0
SEQEND
  5
188
100
AcDbEntity
  8
Solder_Pad_1_Top
  0
HATCH
  5
189
100
AcDbEntity
  8
Solder_Pad_1_Top
100
AcDbHatch
 10
0.0
 20
0.0
 30
0.0
210
0.0
220
0.0
230
1.0
  2
SOLID
 70
       1
 71
       1
 91
        1
 92
        1
 93
        6
 72
       1
 10
54.75
 20
10.133979999999999
 11
56.25
 21
9.2679500000000008
 72
       1
 10
56.25
 20
9.2679500000000008
 11
56.5
 21
9.4122900000000005
 72
       1
 10
56.5
 20
9.4122900000000005
 11
56.5
 21
12.58771
 72
       1
 10
56.5
 20
12.58771
 11
56.25
 21
12.732049999999999
 72
       1
 10
56.25
 20
12.732049999999999
 11
54.75
 21
11.86603
 72
       1
 10
54.75
 20
11.86603
 11
54.75
 21
10.133979999999999
 97
        0
 75
       0
 76
       2
 98
        1
 10
0.0
 20
0.0
  0
POLYLINE
  5
18A
100
AcDbEntity
  8
Solder_Pad_1_Top
100
AcDb2dPolyline
 66
       1
 10
0.0
 20
0.0
 30
0.0
 70
       1
  0
VERTEX
  5
18B
100
AcDbEntity
  8
Solder_Pad_1_Top
100
AcDbVertex
100
AcDb2dVertex
 10
56.5
 20
9.41229
  0
VERTEX
  5
18C
100
AcDbEntity
  8
Solder_Pad_1_Top
100
AcDbVertex
100
AcDb2dVertex
 10
56.5
 20
9.41229
  0
VERTEX
  5
18D
100
AcDbEntity
  8
Solder_Pad_1_Top
100
AcDbVertex
100
AcDb2dVertex
 10
56.25
 20
9.26795
  0
VERTEX
  5
18E
100
AcDbEntity
  8
Solder_Pad_1_Top
100
AcDbVertex
100
AcDb2dVertex
 10
54.75
 20
10.13398
  0
VERTEX
  5
18F
100
AcDbEntity
  8
Solder_Pad_1_Top
100
AcDbVertex
100
AcDb2dVertex
 10
54.75
 20
11.86603
  0
VERTEX
  5
190
100
AcDbEntity
  8
Solder_Pad_1_Top
100
AcDbVertex
100
AcDb2dVertex
 10
56.25
 20
12.73205
  0
VERTEX
  5
191
100
AcDbEntity
  8
Solder_Pad_1_Top
100
AcDbVertex
100
AcDb2dVertex
 10
56.5
 20
12.58771
  0
VERTEX
  5
192
100
AcDbEntity
  8
Solder_Pad_1_Top
100
AcDbVertex
100
AcDb2dVertex
 10
56.5
 20
9.41229
  0
SEQEND
  5
193
100
AcDbEntity
  8
Solder_Pad_1_Top
  0
HATCH
  5
194
100
AcDbEntity
  8
Solder_Pad_1_Top
100
AcDbHatch
 10
0.0
 20
0.0
 30
0.0
210
0.0
220
0.0
230
1.0
  2
SOLID
 70
       1
 71
       1
 91
        1
 92
        1
 93
        6
 72
       1
 10
54.75
 20
4.1339800000000002
 11
56.25
 21
3.2679499999999999
 72
       1
 10
56.25
 20
3.2679499999999999
 11
56.5
 21
3.41229
 72
       1
 10
56.5
 20
3.41229
 11
56.5
 21
6.5877100000000004
 72
       1
 10
56.5
 20
6.5877100000000004
 11
56.25
 21
6.7320500000000001
 72
       1
 10
56.25
 20
6.7320500000000001
 11
54.75
 21
5.8660300000000003
 72
       1
 10
54.75
 20
5.8660300000000003
 11
54.75
 21
4.1339800000000002
 97
        0
 75
       0
 76
       2
 98
        1
 10
0.0
 20
0.0
  0
POLYLINE
  5
195
100
AcDbEntity
  8
Solder_Pad_1_Top
100
AcDb2dPolyline
 66
       1
 10
0.0
 20
0.0
 30
0.0
 70
       1
  0
VERTEX
  5
196
100
AcDbEntity
  8
Solder_Pad_1_Top
100
AcDbVertex
100
AcDb2dVertex
 10
56.5
 20
3.41229
  0
VERTEX
  5
197
100
AcDbEntity
  8
Solder_Pad_1_Top
100
AcDbVertex
100
AcDb2dVertex
 10
56.5
 20
3.41229
  0
VERTEX
  5
198
100
AcDbEntity
  8
Solder_Pad_1_Top
100
AcDbVertex
100
AcDb2dVertex
 10
56.25
 20
3.26795
  0
VERTEX
  5
199
100
AcDbEntity
  8
Solder_Pad_1_Top
100
AcDbVertex
100
AcDb2dVertex
 10
54.75
 20
4.13398
  0
VERTEX
  5
19A
100
AcDbEntity
  8
Solder_Pad_1_Top
100
AcDbVertex
100
AcDb2dVertex
 10
54.75
 20
5.86603
  0
VERTEX
  5
19B
100
AcDbEntity
  8
Solder_Pad_1_Top
100
AcDbVertex
100
AcDb2dVertex
 10
56.25
 20
6.73205
  0
VERTEX
  5
19C
100
AcDbEntity
  8
Solder_Pad_1_Top
100
AcDbVertex
100
AcDb2dVertex
 10
56.5
 20
6.58771
  0
VERTEX
  5
19D
100
AcDbEntity
  8
Solder_Pad_1_Top
100
AcDbVertex
100
AcDb2dVertex
 10
56.5
 20
3.41229
  0
SEQEND
  5
19E
100
AcDbEntity
  8
Solder_Pad_1_Top
  0
HATCH
  5
19F
100
AcDbEntity
  8
Solder_Pad_1_Top
100
AcDbHatch
 10
0.0
 20
0.0
 30
0.0
210
0.0
220
0.0
230
1.0
  2
SOLID
 70
       1
 71
       1
 91
        1
 92
        1
 93
        3
 72
       1
 10
2.48204
 20
0.0
 11
5.0179600000000004
 21
0.0
 72
       1
 10
5.0179600000000004
 20
0.0
 11
3.75
 21
0.73205
 72
       1
 10
3.75
 20
0.73205
 11
2.48204
 21
0.0
 97
        0
 75
       0
 76
       2
 98
        1
 10
0.0
 20
0.0
  0
POLYLINE
  5
1A0
100
AcDbEntity
  8
Solder_Pad_1_Top
100
AcDb2dPolyline
 66
       1
 10
0.0
 20
0.0
 30
0.0
 70
       1
  0
VERTEX
  5
1A1
100
AcDbEntity
  8
Solder_Pad_1_Top
100
AcDbVertex
100
AcDb2dVertex
 10
5.01796
 20
0.0
  0
VERTEX
  5
1A2
100
AcDbEntity
  8
Solder_Pad_1_Top
100
AcDbVertex
100
AcDb2dVertex
 10
5.01796
 20
0.0
  0
VERTEX
  5
1A3
100
AcDbEntity
  8
Solder_Pad_1_Top
100
AcDbVertex
100
AcDb2dVertex
 10
3.75
 20
0.73205
  0
VERTEX
  5
1A4
100
AcDbEntity
  8
Solder_Pad_1_Top
100
AcDbVertex
100
AcDb2dVertex
 10
2.48204
 20
0.0
  0
VERTEX
  5
1A5
100
AcDbEntity
  8
Solder_Pad_1_Top
100
AcDbVertex
100
AcDb2dVertex
 10
5.01796
 20
0.0
  0
SEQEND
  5
1A6
100
AcDbEntity
  8
Solder_Pad_1_Top
  0
HATCH
  5
1A7
100
AcDbEntity
  8
Solder_Pad_1_Top
100
AcDbHatch
 10
0.0
 20
0.0
 30
0.0
210
0.0
220
0.0
230
1.0
  2
SOLID
 70
       1
 71
       1
 91
        1
 92
        1
 93
        3
 72
       1
 10
5.9820399999999996
 20
0.0
 11
8.5179600000000004
 21
0.0
 72
       1
 10
8.5179600000000004
 20
0.0
 11
7.25
 21
0.73205
 72
       1
 10
7.25
 20
0.73205
 11
5.9820399999999996
 21
0.0
 97
        0
 75
       0
 76
       2
 98
        1
 10
0.0
 20
0.0
  0
POLYLINE
  5
1A8
100
AcDbEntity
  8
Solder_Pad_1_Top
100
AcDb2dPolyline
 66
       1
 10
0.0
 20
0.0
 30
0.0
 70
       1
  0
VERTEX
  5
1A9
100
AcDbEntity
  8
Solder_Pad_1_Top
100
AcDbVertex
100
AcDb2dVertex
 10
8.51796
 20
0.0
  0
VERTEX
  5
1AA
100
AcDbEntity
  8
Solder_Pad_1_Top
100
AcDbVertex
100
AcDb2dVertex
 10
8.51796
 20
0.0
  0
VERTEX
  5
1AB
100
AcDbEntity
  8
Solder_Pad_1_Top
100
AcDbVertex
100
AcDb2dVertex
 10
7.25
 20
0.73205
  0
VERTEX
  5
1AC
100
AcDbEntity
  8
Solder_Pad_1_Top
100
AcDbVertex
100
AcDb2dVertex
 10
5.98204
 20
0.0
  0
VERTEX
  5
1AD
100
AcDbEntity
  8
Solder_Pad_1_Top
100
AcDbVertex
100
AcDb2dVertex
 10
8.51796
 20
0.0
  0
SEQEND
  5
1AE
100
AcDbEntity
  8
Solder_Pad_1_Top
  0
HATCH
  5
1AF
100
AcDbEntity
  8
Solder_Pad_1_Top
100
AcDbHatch
 10
0.0
 20
0.0
 30
0.0
210
0.0
220
0.0
230
1.0
  2
SOLID
 70
       1
 71
       1
 91
        1
 92
        1
 93
        3
 72
       1
 10
9.4820399999999996
 20
0.0
 11
12.01796
 21
0.0
 72
       1
 10
12.01796
 20
0.0
 11
10.75
 21
0.73205
 72
       1
 10
10.75
 20
0.73205
 11
9.4820399999999996
 21
0.0
 97
        0
 75
       0
 76
       2
 98
        1
 10
0.0
 20
0.0
  0
POLYLINE
  5
1B0
100
AcDbEntity
  8
Solder_Pad_1_Top
100
AcDb2dPolyline
 66
       1
 10
0.0
 20
0.0
 30
0.0
 70
       1
  0
VERTEX
  5
1B1
100
AcDbEntity
  8
Solder_Pad_1_Top
100
AcDbVertex
100
AcDb2dVertex
 10
12.01796
 20
0.0
  0
VERTEX
  5
1B2
100
AcDbEntity
  8
Solder_Pad_1_Top
100
AcDbVertex
100
AcDb2dVertex
 10
12.01796
 20
0.0
  0
VERTEX
  5
1B3
100
AcDbEntity
  8
Solder_Pad_1_Top
100
AcDbVertex
100
AcDb2dVertex
 10
10.75
 20
0.73205
  0
VERTEX
  5
1B4
100
AcDbEntity
  8
Solder_Pad_1_Top
100
AcDbVertex
100
AcDb2dVertex
 10
9.48204
 20
0.0
  0
VERTEX
  5
1B5
100
AcDbEntity
  8
Solder_Pad_1_Top
100
AcDbVertex
100
AcDb2dVertex
 10
12.01796
 20
0.0
  0
SEQEND
  5
1B6
100
AcDbEntity
  8
Solder_Pad_1_Top
  0
HATCH
  5
1B7
100
AcDbEntity
  8
Solder_Pad_1_Top
100
AcDbHatch
 10
0.0
 20
0.0
 30
0.0
210
0.0
220
0.0
230
1.0
  2
SOLID
 70
       1
 71
       1
 91
        1
 92
        1
 93
        3
 72
       1
 10
12.98204
 20
0.0
 11
15.51796
 21
0.0
 72
       1
 10
15.51796
 20
0.0
 11
14.25
 21
0.73205
 72
       1
 10
14.25
 20
0.73205
 11
12.98204
 21
0.0
 97
        0
 75
       0
 76
       2
 98
        1
 10
0.0
 20
0.0
  0
POLYLINE
  5
1B8
100
AcDbEntity
  8
Solder_Pad_1_Top
100
AcDb2dPolyline
 66
       1
 10
0.0
 20
0.0
 30
0.0
 70
       1
  0
VERTEX
  5
1B9
100
AcDbEntity
  8
Solder_Pad_1_Top
100
AcDbVertex
100
AcDb2dVertex
 10
15.51796
 20
0.0
  0
VERTEX
  5
1BA
100
AcDbEntity
  8
Solder_Pad_1_Top
100
AcDbVertex
100
AcDb2dVertex
 10
15.51796
 20
0.0
  0
VERTEX
  5
1BB
100
AcDbEntity
  8
Solder_Pad_1_Top
100
AcDbVertex
100
AcDb2dVertex
 10
14.25
 20
0.73205
  0
VERTEX
  5
1BC
100
AcDbEntity
  8
Solder_Pad_1_Top
100
AcDbVertex
100
AcDb2dVertex
 10
12.98204
 20
0.0
  0
VERTEX
  5
1BD
100
AcDbEntity
  8
Solder_Pad_1_Top
100
AcDbVertex
100
AcDb2dVertex
 10
15.51796
 20
0.0
  0
SEQEND
  5
1BE
100
AcDbEntity
  8
Solder_Pad_1_Top
  0
HATCH
  5
1BF
100
AcDbEntity
  8
Solder_Pad_1_Top
100
AcDbHatch
 10
0.0
 20
0.0
 30
0.0
210
0.0
220
0.0
230
1.0
  2
SOLID
 70
       1
 71
       1
 91
        1
 92
        1
 93
        3
 72
       1
 10
16.482040000000001
 20
0.0
 11
19.017959999999999
 21
0.0
 72
       1
 10
19.017959999999999
 20
0.0
 11
17.75
 21
0.73205
 72
       1
 10
17.75
 20
0.73205
 11
16.482040000000001
 21
0.0
 97
        0
 75
       0
 76
       2
 98
        1
 10
0.0
 20
0.0
  0
POLYLINE
  5
1C0
100
AcDbEntity
  8
Solder_Pad_1_Top
100
AcDb2dPolyline
 66
       1
 10
0.0
 20
0.0
 30
0.0
 70
       1
  0
VERTEX
  5
1C1
100
AcDbEntity
  8
Solder_Pad_1_Top
100
AcDbVertex
100
AcDb2dVertex
 10
19.01796
 20
0.0
  0
VERTEX
  5
1C2
100
AcDbEntity
  8
Solder_Pad_1_Top
100
AcDbVertex
100
AcDb2dVertex
 10
19.01796
 20
0.0
  0
VERTEX
  5
1C3
100
AcDbEntity
  8
Solder_Pad_1_Top
100
AcDbVertex
100
AcDb2dVertex
 10
17.75
 20
0.73205
  0
VERTEX
  5
1C4
100
AcDbEntity
  8
Solder_Pad_1_Top
100
AcDbVertex
100
AcDb2dVertex
 10
16.48204
 20
0.0
  0
VERTEX
  5
1C5
100
AcDbEntity
  8
Solder_Pad_1_Top
100
AcDbVertex
100
AcDb2dVertex
 10
19.01796
 20
0.0
  0
SEQEND
  5
1C6
100
AcDbEntity
  8
Solder_Pad_1_Top
  0
HATCH
  5
1C7
100
AcDbEntity
  8
Solder_Pad_1_Top
100
AcDbHatch
 10
0.0
 20
0.0
 30
0.0
210
0.0
220
0.0
230
1.0
  2
SOLID
 70
       1
 71
       1
 91
        1
 92
        1
 93
        3
 72
       1
 10
19.982040000000001
 20
0.0
 11
22.517959999999999
 21
0.0
 72
       1
 10
22.517959999999999
 20
0.0
 11
21.25
 21
0.73205
 72
       1
 10
21.25
 20
0.73205
 11
19.982040000000001
 21
0.0
 97
        0
 75
       0
 76
       2
 98
        1
 10
0.0
 20
0.0
  0
POLYLINE
  5
1C8
100
AcDbEntity
  8
Solder_Pad_1_Top
100
AcDb2dPolyline
 66
       1
 10
0.0
 20
0.0
 30
0.0
 70
       1
  0
VERTEX
  5
1C9
100
AcDbEntity
  8
Solder_Pad_1_Top
100
AcDbVertex
100
AcDb2dVertex
 10
22.51796
 20
0.0
  0
VERTEX
  5
1CA
100
AcDbEntity
  8
Solder_Pad_1_Top
100
AcDbVertex
100
AcDb2dVertex
 10
22.51796
 20
0.0
  0
VERTEX
  5
1CB
100
AcDbEntity
  8
Solder_Pad_1_Top
100
AcDbVertex
100
AcDb2dVertex
 10
21.25
 20
0.73205
  0
VERTEX
  5
1CC
100
AcDbEntity
  8
Solder_Pad_1_Top
100
AcDbVertex
100
AcDb2dVertex
 10
19.98204
 20
0.0
  0
VERTEX
  5
1CD
100
AcDbEntity
  8
Solder_Pad_1_Top
100
AcDbVertex
100
AcDb2dVertex
 10
22.51796
 20
0.0
  0
SEQEND
  5
1CE
100
AcDbEntity
  8
Solder_Pad_1_Top
  0
HATCH
  5
1CF
100
AcDbEntity
  8
Solder_Pad_1_Top
100
AcDbHatch
 10
0.0
 20
0.0
 30
0.0
210
0.0
220
0.0
230
1.0
  2
SOLID
 70
       1
 71
       1
 91
        1
 92
        1
 93
        3
 72
       1
 10
23.482040000000001
 20
0.0
 11
26.017959999999999
 21
0.0
 72
       1
 10
26.017959999999999
 20
0.0
 11
24.75
 21
0.73205
 72
       1
 10
24.75
 20
0.73205
 11
23.482040000000001
 21
0.0
 97
        0
 75
       0
 76
       2
 98
        1
 10
0.0
 20
0.0
  0
POLYLINE
  5
1D0
100
AcDbEntity
  8
Solder_Pad_1_Top
100
AcDb2dPolyline
 66
       1
 10
0.0
 20
0.0
 30
0.0
 70
       1
  0
VERTEX
  5
1D1
100
AcDbEntity
  8
Solder_Pad_1_Top
100
AcDbVertex
100
AcDb2dVertex
 10
26.01796
 20
0.0
  0
VERTEX
  5
1D2
100
AcDbEntity
  8
Solder_Pad_1_Top
100
AcDbVertex
100
AcDb2dVertex
 10
26.01796
 20
0.0
  0
VERTEX
  5
1D3
100
AcDbEntity
  8
Solder_Pad_1_Top
100
AcDbVertex
100
AcDb2dVertex
 10
24.75
 20
0.73205
  0
VERTEX
  5
1D4
100
AcDbEntity
  8
Solder_Pad_1_Top
100
AcDbVertex
100
AcDb2dVertex
 10
23.48204
 20
0.0
  0
VERTEX
  5
1D5
100
AcDbEntity
  8
Solder_Pad_1_Top
100
AcDbVertex
100
AcDb2dVertex
 10
26.01796
 20
0.0
  0
SEQEND
  5
1D6
100
AcDbEntity
  8
Solder_Pad_1_Top
  0
HATCH
  5
1D7
100
AcDbEntity
  8
Solder_Pad_1_Top
100
AcDbHatch
 10
0.0
 20
0.0
 30
0.0
210
0.0
220
0.0
230
1.0
  2
SOLID
 70
       1
 71
       1
 91
        1
 92
        1
 93
        3
 72
       1
 10
26.982040000000001
 20
0.0
 11
29.517959999999999
 21
0.0
 72
       1
 10
29.517959999999999
 20
0.0
 11
28.25
 21
0.73205
 72
       1
 10
28.25
 20
0.73205
 11
26.982040000000001
 21
0.0
 97
        0
 75
       0
 76
       2
 98
        1
 10
0.0
 20
0.0
  0
POLYLINE
  5
1D8
100
AcDbEntity
  8
Solder_Pad_1_Top
100
AcDb2dPolyline
 66
       1
 10
0.0
 20
0.0
 30
0.0
 70
       1
  0
VERTEX
  5
1D9
100
AcDbEntity
  8
Solder_Pad_1_Top
100
AcDbVertex
100
AcDb2dVertex
 10
29.51796
 20
0.0
  0
VERTEX
  5
1DA
100
AcDbEntity
  8
Solder_Pad_1_Top
100
AcDbVertex
100
AcDb2dVertex
 10
29.51796
 20
0.0
  0
VERTEX
  5
1DB
100
AcDbEntity
  8
Solder_Pad_1_Top
100
AcDbVertex
100
AcDb2dVertex
 10
28.25
 20
0.73205
  0
VERTEX
  5
1DC
100
AcDbEntity
  8
Solder_Pad_1_Top
100
AcDbVertex
100
AcDb2dVertex
 10
26.98204
 20
0.0
  0
VERTEX
  5
1DD
100
AcDbEntity
  8
Solder_Pad_1_Top
100
AcDbVertex
100
AcDb2dVertex
 10
29.51796
 20
0.0
  0
SEQEND
  5
1DE
100
AcDbEntity
  8
Solder_Pad_1_Top
  0
HATCH
  5
1DF
100
AcDbEntity
  8
Solder_Pad_1_Top
100
AcDbHatch
 10
0.0
 20
0.0
 30
0.0
210
0.0
220
0.0
230
1.0
  2
SOLID
 70
       1
 71
       1
 91
        1
 92
        1
 93
        3
 72
       1
 10
30.482040000000001
 20
0.0
 11
33.017960000000002
 21
0.0
 72
       1
 10
33.017960000000002
 20
0.0
 11
31.75
 21
0.73205
 72
       1
 10
31.75
 20
0.73205
 11
30.482040000000001
 21
0.0
 97
        0
 75
       0
 76
       2
 98
        1
 10
0.0
 20
0.0
  0
POLYLINE
  5
1E0
100
AcDbEntity
  8
Solder_Pad_1_Top
100
AcDb2dPolyline
 66
       1
 10
0.0
 20
0.0
 30
0.0
 70
       1
  0
VERTEX
  5
1E1
100
AcDbEntity
  8
Solder_Pad_1_Top
100
AcDbVertex
100
AcDb2dVertex
 10
33.01796
 20
0.0
  0
VERTEX
  5
1E2
100
AcDbEntity
  8
Solder_Pad_1_Top
100
AcDbVertex
100
AcDb2dVertex
 10
33.01796
 20
0.0
  0
VERTEX
  5
1E3
100
AcDbEntity
  8
Solder_Pad_1_Top
100
AcDbVertex
100
AcDb2dVertex
 10
31.75
 20
0.73205
  0
VERTEX
  5
1E4
100
AcDbEntity
  8
Solder_Pad_1_Top
100
AcDbVertex
100
AcDb2dVertex
 10
30.48204
 20
0.0
  0
VERTEX
  5
1E5
100
AcDbEntity
  8
Solder_Pad_1_Top
100
AcDbVertex
100
AcDb2dVertex
 10
33.01796
 20
0.0
  0
SEQEND
  5
1E6
100
AcDbEntity
  8
Solder_Pad_1_Top
  0
HATCH
  5
1E7
100
AcDbEntity
  8
Solder_Pad_1_Top
100
AcDbHatch
 10
0.0
 20
0.0
 30
0.0
210
0.0
220
0.0
230
1.0
  2
SOLID
 70
       1
 71
       1
 91
        1
 92
        1
 93
        3
 72
       1
 10
33.982039999999998
 20
0.0
 11
36.517960000000002
 21
0.0
 72
       1
 10
36.517960000000002
 20
0.0
 11
35.25
 21
0.73205
 72
       1
 10
35.25
 20
0.73205
 11
33.982039999999998
 21
0.0
 97
        0
 75
       0
 76
       2
 98
        1
 10
0.0
 20
0.0
  0
POLYLINE
  5
1E8
100
AcDbEntity
  8
Solder_Pad_1_Top
100
AcDb2dPolyline
 66
       1
 10
0.0
 20
0.0
 30
0.0
 70
       1
  0
VERTEX
  5
1E9
100
AcDbEntity
  8
Solder_Pad_1_Top
100
AcDbVertex
100
AcDb2dVertex
 10
36.51796
 20
0.0
  0
VERTEX
  5
1EA
100
AcDbEntity
  8
Solder_Pad_1_Top
100
AcDbVertex
100
AcDb2dVertex
 10
36.51796
 20
0.0
  0
VERTEX
  5
1EB
100
AcDbEntity
  8
Solder_Pad_1_Top
100
AcDbVertex
100
AcDb2dVertex
 10
35.25
 20
0.73205
  0
VERTEX
  5
1EC
100
AcDbEntity
  8
Solder_Pad_1_Top
100
AcDbVertex
100
AcDb2dVertex
 10
33.98204
 20
0.0
  0
VERTEX
  5
1ED
100
AcDbEntity
  8
Solder_Pad_1_Top
100
AcDbVertex
100
AcDb2dVertex
 10
36.51796
 20
0.0
  0
SEQEND
  5
1EE
100
AcDbEntity
  8
Solder_Pad_1_Top
  0
HATCH
  5
1EF
100
AcDbEntity
  8
Solder_Pad_1_Top
100
AcDbHatch
 10
0.0
 20
0.0
 30
0.0
210
0.0
220
0.0
230
1.0
  2
SOLID
 70
       1
 71
       1
 91
        1
 92
        1
 93
        3
 72
       1
 10
37.482039999999998
 20
0.0
 11
40.017960000000002
 21
0.0
 72
       1
 10
40.017960000000002
 20
0.0
 11
38.75
 21
0.73205
 72
       1
 10
38.75
 20
0.73205
 11
37.482039999999998
 21
0.0
 97
        0
 75
       0
 76
       2
 98
        1
 10
0.0
 20
0.0
  0
POLYLINE
  5
1F0
100
AcDbEntity
  8
Solder_Pad_1_Top
100
AcDb2dPolyline
 66
       1
 10
0.0
 20
0.0
 30
0.0
 70
       1
  0
VERTEX
  5
1F1
100
AcDbEntity
  8
Solder_Pad_1_Top
100
AcDbVertex
100
AcDb2dVertex
 10
40.01796
 20
0.0
  0
VERTEX
  5
1F2
100
AcDbEntity
  8
Solder_Pad_1_Top
100
AcDbVertex
100
AcDb2dVertex
 10
40.01796
 20
0.0
  0
VERTEX
  5
1F3
100
AcDbEntity
  8
Solder_Pad_1_Top
100
AcDbVertex
100
AcDb2dVertex
 10
38.75
 20
0.73205
  0
VERTEX
  5
1F4
100
AcDbEntity
  8
Solder_Pad_1_Top
100
AcDbVertex
100
AcDb2dVertex
 10
37.48204
 20
0.0
  0
VERTEX
  5
1F5
100
AcDbEntity
  8
Solder_Pad_1_Top
100
AcDbVertex
100
AcDb2dVertex
 10
40.01796
 20
0.0
  0
SEQEND
  5
1F6
100
AcDbEntity
  8
Solder_Pad_1_Top
  0
HATCH
  5
1F7
100
AcDbEntity
  8
Solder_Pad_1_Top
100
AcDbHatch
 10
0.0
 20
0.0
 30
0.0
210
0.0
220
0.0
230
1.0
  2
SOLID
 70
       1
 71
       1
 91
        1
 92
        1
 93
        3
 72
       1
 10
40.982039999999998
 20
0.0
 11
43.517960000000002
 21
0.0
 72
       1
 10
43.517960000000002
 20
0.0
 11
42.25
 21
0.73205
 72
       1
 10
42.25
 20
0.73205
 11
40.982039999999998
 21
0.0
 97
        0
 75
       0
 76
       2
 98
        1
 10
0.0
 20
0.0
  0
POLYLINE
  5
1F8
100
AcDbEntity
  8
Solder_Pad_1_Top
100
AcDb2dPolyline
 66
       1
 10
0.0
 20
0.0
 30
0.0
 70
       1
  0
VERTEX
  5
1F9
100
AcDbEntity
  8
Solder_Pad_1_Top
100
AcDbVertex
100
AcDb2dVertex
 10
43.51796
 20
0.0
  0
VERTEX
  5
1FA
100
AcDbEntity
  8
Solder_Pad_1_Top
100
AcDbVertex
100
AcDb2dVertex
 10
43.51796
 20
0.0
  0
VERTEX
  5
1FB
100
AcDbEntity
  8
Solder_Pad_1_Top
100
AcDbVertex
100
AcDb2dVertex
 10
42.25
 20
0.73205
  0
VERTEX
  5
1FC
100
AcDbEntity
  8
Solder_Pad_1_Top
100
AcDbVertex
100
AcDb2dVertex
 10
40.98204
 20
0.0
  0
VERTEX
  5
1FD
100
AcDbEntity
  8
Solder_Pad_1_Top
100
AcDbVertex
100
AcDb2dVertex
 10
43.51796
 20
0.0
  0
SEQEND
  5
1FE
100
AcDbEntity
  8
Solder_Pad_1_Top
  0
HATCH
  5
1FF
100
AcDbEntity
  8
Solder_Pad_1_Top
100
AcDbHatch
 10
0.0
 20
0.0
 30
0.0
210
0.0
220
0.0
230
1.0
  2
SOLID
 70
       1
 71
       1
 91
        1
 92
        1
 93
        3
 72
       1
 10
44.482039999999998
 20
0.0
 11
47.017960000000002
 21
0.0
 72
       1
 10
47.017960000000002
 20
0.0
 11
45.75
 21
0.73205
 72
       1
 10
45.75
 20
0.73205
 11
44.482039999999998
 21
0.0
 97
        0
 75
       0
 76
       2
 98
        1
 10
0.0
 20
0.0
  0
POLYLINE
  5
200
100
AcDbEntity
  8
Solder_Pad_1_Top
100
AcDb2dPolyline
 66
       1
 10
0.0
 20
0.0
 30
0.0
 70
       1
  0
VERTEX
  5
201
100
AcDbEntity
  8
Solder_Pad_1_Top
100
AcDbVertex
100
AcDb2dVertex
 10
47.01796
 20
0.0
  0
VERTEX
  5
202
100
AcDbEntity
  8
Solder_Pad_1_Top
100
AcDbVertex
100
AcDb2dVertex
 10
47.01796
 20
0.0
  0
VERTEX
  5
203
100
AcDbEntity
  8
Solder_Pad_1_Top
100
AcDbVertex
100
AcDb2dVertex
 10
45.75
 20
0.73205
  0
VERTEX
  5
204
100
AcDbEntity
  8
Solder_Pad_1_Top
100
AcDbVertex
100
AcDb2dVertex
 10
44.48204
 20
0.0
  0
VERTEX
  5
205
100
AcDbEntity
  8
Solder_Pad_1_Top
100
AcDbVertex
100
AcDb2dVertex
 10
47.01796
 20
0.0
  0
SEQEND
  5
206
100
AcDbEntity
  8
Solder_Pad_1_Top
  0
HATCH
  5
207
100
AcDbEntity
  8
Solder_Pad_1_Top
100
AcDbHatch
 10
0.0
 20
0.0
 30
0.0
210
0.0
220
0.0
230
1.0
  2
SOLID
 70
       1
 71
       1
 91
        1
 92
        1
 93
        3
 72
       1
 10
47.982039999999998
 20
0.0
 11
50.517960000000002
 21
0.0
 72
       1
 10
50.517960000000002
 20
0.0
 11
49.25
 21
0.73205
 72
       1
 10
49.25
 20
0.73205
 11
47.982039999999998
 21
0.0
 97
        0
 75
       0
 76
       2
 98
        1
 10
0.0
 20
0.0
  0
POLYLINE
  5
208
100
AcDbEntity
  8
Solder_Pad_1_Top
100
AcDb2dPolyline
 66
       1
 10
0.0
 20
0.0
 30
0.0
 70
       1
  0
VERTEX
  5
209
100
AcDbEntity
  8
Solder_Pad_1_Top
100
AcDbVertex
100
AcDb2dVertex
 10
50.51796
 20
0.0
  0
VERTEX
  5
20A
100
AcDbEntity
  8
Solder_Pad_1_Top
100
AcDbVertex
100
AcDb2dVertex
 10
50.51796
 20
0.0
  0
VERTEX
  5
20B
100
AcDbEntity
  8
Solder_Pad_1_Top
100
AcDbVertex
100
AcDb2dVertex
 10
49.25
 20
0.73205
  0
VERTEX
  5
20C
100
AcDbEntity
  8
Solder_Pad_1_Top
100
AcDbVertex
100
AcDb2dVertex
 10
47.98204
 20
0.0
  0
VERTEX
  5
20D
100
AcDbEntity
  8
Solder_Pad_1_Top
100
AcDbVertex
100
AcDb2dVertex
 10
50.51796
 20
0.0
  0
SEQEND
  5
20E
100
AcDbEntity
  8
Solder_Pad_1_Top
  0
HATCH
  5
20F
100
AcDbEntity
  8
Solder_Pad_1_Top
100
AcDbHatch
 10
0.0
 20
0.0
 30
0.0
210
0.0
220
0.0
230
1.0
  2
SOLID
 70
       1
 71
       1
 91
        1
 92
        1
 93
        3
 72
       1
 10
51.482039999999998
 20
0.0
 11
54.017960000000002
 21
0.0
 72
       1
 10
54.017960000000002
 20
0.0
 11
52.75
 21
0.73205
 72
       1
 10
52.75
 20
0.73205
 11
51.482039999999998
 21
0.0
 97
        0
 75
       0
 76
       2
 98
        1
 10
0.0
 20
0.0
  0
POLYLINE
  5
210
100
AcDbEntity
  8
Solder_Pad_1_Top
100
AcDb2dPolyline
 66
       1
 10
0.0
 20
0.0
 30
0.0
 70
       1
  0
VERTEX
  5
211
100
AcDbEntity
  8
Solder_Pad_1_Top
100
AcDbVertex
100
AcDb2dVertex
 10
54.01796
 20
0.0
  0
VERTEX
  5
212
100
AcDbEntity
  8
Solder_Pad_1_Top
100
AcDbVertex
100
AcDb2dVertex
 10
54.01796
 20
0.0
  0
VERTEX
  5
213
100
AcDbEntity
  8
Solder_Pad_1_Top
100
AcDbVertex
100
AcDb2dVertex
 10
52.75
 20
0.73205
  0
VERTEX
  5
214
100
AcDbEntity
  8
Solder_Pad_1_Top
100
AcDbVertex
100
AcDb2dVertex
 10
51.48204
 20
0.0
  0
VERTEX
  5
215
100
AcDbEntity
  8
Solder_Pad_1_Top
100
AcDbVertex
100
AcDb2dVertex
 10
54.01796
 20
0.0
  0
SEQEND
  5
216
100
AcDbEntity
  8
Solder_Pad_1_Top
  0
HATCH
  5
217
100
AcDbEntity
  8
Solder_Pad_1_Top
100
AcDbHatch
 10
0.0
 20
0.0
 30
0.0
210
0.0
220
0.0
230
1.0
  2
SOLID
 70
       1
 71
       1
 91
        1
 92
        1
 93
        6
 72
       1
 10
47.75
 20
4.1339800000000002
 11
49.25
 21
3.2679499999999999
 72
       1
 10
49.25
 20
3.2679499999999999
 11
50.75
 21
4.1339800000000002
 72
       1
 10
50.75
 20
4.1339800000000002
 11
50.75
 21
5.8660300000000003
 72
       1
 10
50.75
 20
5.8660300000000003
 11
49.25
 21
6.7320500000000001
 72
       1
 10
49.25
 20
6.7320500000000001
 11
47.75
 21
5.8660300000000003
 72
       1
 10
47.75
 20
5.8660300000000003
 11
47.75
 21
4.1339800000000002
 97
        0
 75
       0
 76
       2
 98
        1
 10
0.0
 20
0.0
  0
POLYLINE
  5
218
100
AcDbEntity
  8
Solder_Pad_1_Top
100
AcDb2dPolyline
 66
       1
 10
0.0
 20
0.0
 30
0.0
 70
       1
  0
VERTEX
  5
219
100
AcDbEntity
  8
Solder_Pad_1_Top
100
AcDbVertex
100
AcDb2dVertex
 10
47.75
 20
5.86603
  0
VERTEX
  5
21A
100
AcDbEntity
  8
Solder_Pad_1_Top
100
AcDbVertex
100
AcDb2dVertex
 10
47.75
 20
5.86603
  0
VERTEX
  5
21B
100
AcDbEntity
  8
Solder_Pad_1_Top
100
AcDbVertex
100
AcDb2dVertex
 10
49.25
 20
6.73205
  0
VERTEX
  5
21C
100
AcDbEntity
  8
Solder_Pad_1_Top
100
AcDbVertex
100
AcDb2dVertex
 10
50.75
 20
5.86603
  0
VERTEX
  5
21D
100
AcDbEntity
  8
Solder_Pad_1_Top
100
AcDbVertex
100
AcDb2dVertex
 10
50.75
 20
4.13398
  0
VERTEX
  5
21E
100
AcDbEntity
  8
Solder_Pad_1_Top
100
AcDbVertex
100
AcDb2dVertex
 10
49.25
 20
3.26795
  0
VERTEX
  5
21F
100
AcDbEntity
  8
Solder_Pad_1_Top
100
AcDbVertex
100
AcDb2dVertex
 10
47.75
 20
4.13398
  0
VERTEX
  5
220
100
AcDbEntity
  8
Solder_Pad_1_Top
100
AcDbVertex
100
AcDb2dVertex
 10
47.75
 20
5.86603
  0
SEQEND
  5
221
100
AcDbEntity
  8
Solder_Pad_1_Top
  0
HATCH
  5
222
100
AcDbEntity
  8
Solder_Pad_1_Top
100
AcDbHatch
 10
0.0
 20
0.0
 30
0.0
210
0.0
220
0.0
230
1.0
  2
SOLID
 70
       1
 71
       1
 91
        1
 92
        1
 93
        6
 72
       1
 10
16.25
 20
16.133980000000001
 11
17.75
 21
15.267950000000001
 72
       1
 10
17.75
 20
15.267950000000001
 11
19.25
 21
16.133980000000001
 72
       1
 10
19.25
 20
16.133980000000001
 11
19.25
 21
17.866029999999999
 72
       1
 10
19.25
 20
17.866029999999999
 11
17.75
 21
18.732050000000001
 72
       1
 10
17.75
 20
18.732050000000001
 11
16.25
 21
17.866029999999999
 72
       1
 10
16.25
 20
17.866029999999999
 11
16.25
 21
16.133980000000001
 97
        0
 75
       0
 76
       2
 98
        1
 10
0.0
 20
0.0
  0
POLYLINE
  5
223
100
AcDbEntity
  8
Solder_Pad_1_Top
100
AcDb2dPolyline
 66
       1
 10
0.0
 20
0.0
 30
0.0
 70
       1
  0
VERTEX
  5
224
100
AcDbEntity
  8
Solder_Pad_1_Top
100
AcDbVertex
100
AcDb2dVertex
 10
16.25
 20
17.86603
  0
VERTEX
  5
225
100
AcDbEntity
  8
Solder_Pad_1_Top
100
AcDbVertex
100
AcDb2dVertex
 10
16.25
 20
17.86603
  0
VERTEX
  5
226
100
AcDbEntity
  8
Solder_Pad_1_Top
100
AcDbVertex
100
AcDb2dVertex
 10
17.75
 20
18.73205
  0
VERTEX
  5
227
100
AcDbEntity
  8
Solder_Pad_1_Top
100
AcDbVertex
100
AcDb2dVertex
 10
19.25
 20
17.86603
  0
VERTEX
  5
228
100
AcDbEntity
  8
Solder_Pad_1_Top
100
AcDbVertex
100
AcDb2dVertex
 10
19.25
 20
16.13398
  0
VERTEX
  5
229
100
AcDbEntity
  8
Solder_Pad_1_Top
100
AcDbVertex
100
AcDb2dVertex
 10
17.75
 20
15.26795
  0
VERTEX
  5
22A
100
AcDbEntity
  8
Solder_Pad_1_Top
100
AcDbVertex
100
AcDb2dVertex
 10
16.25
 20
16.13398
  0
VERTEX
  5
22B
100
AcDbEntity
  8
Solder_Pad_1_Top
100
AcDbVertex
100
AcDb2dVertex
 10
16.25
 20
17.86603
  0
SEQEND
  5
22C
100
AcDbEntity
  8
Solder_Pad_1_Top
  0
HATCH
  5
22D
100
AcDbEntity
  8
Solder_Pad_1_Top
100
AcDbHatch
 10
0.0
 20
0.0
 30
0.0
210
0.0
220
0.0
230
1.0
  2
SOLID
 70
       1
 71
       1
 91
        1
 92
        1
 93
        6
 72
       1
 10
42.5
 20
1.13398
 11
44.0
 21
0.26795
 72
       1
 10
44.0
 20
0.26795
 11
45.5
 21
1.13398
 72
       1
 10
45.5
 20
1.13398
 11
45.5
 21
2.8660299999999999
 72
       1
 10
45.5
 20
2.8660299999999999
 11
44.0
 21
3.7320500000000001
 72
       1
 10
44.0
 20
3.7320500000000001
 11
42.5
 21
2.8660299999999999
 72
       1
 10
42.5
 20
2.8660299999999999
 11
42.5
 21
1.13398
 97
        0
 75
       0
 76
       2
 98
        1
 10
0.0
 20
0.0
  0
POLYLINE
  5
22E
100
AcDbEntity
  8
Solder_Pad_1_Top
100
AcDb2dPolyline
 66
       1
 10
0.0
 20
0.0
 30
0.0
 70
       1
  0
VERTEX
  5
22F
100
AcDbEntity
  8
Solder_Pad_1_Top
100
AcDbVertex
100
AcDb2dVertex
 10
42.5
 20
2.86603
  0
VERTEX
  5
230
100
AcDbEntity
  8
Solder_Pad_1_Top
100
AcDbVertex
100
AcDb2dVertex
 10
42.5
 20
2.86603
  0
VERTEX
  5
231
100
AcDbEntity
  8
Solder_Pad_1_Top
100
AcDbVertex
100
AcDb2dVertex
 10
44.0
 20
3.73205
  0
VERTEX
  5
232
100
AcDbEntity
  8
Solder_Pad_1_Top
100
AcDbVertex
100
AcDb2dVertex
 10
45.5
 20
2.86603
  0
VERTEX
  5
233
100
AcDbEntity
  8
Solder_Pad_1_Top
100
AcDbVertex
100
AcDb2dVertex
 10
45.5
 20
1.13398
  0
VERTEX
  5
234
100
AcDbEntity
  8
Solder_Pad_1_Top
100
AcDbVertex
100
AcDb2dVertex
 10
44.0
 20
0.26795
  0
VERTEX
  5
235
100
AcDbEntity
  8
Solder_Pad_1_Top
100
AcDbVertex
100
AcDb2dVertex
 10
42.5
 20
1.13398
  0
VERTEX
  5
236
100
AcDbEntity
  8
Solder_Pad_1_Top
100
AcDbVertex
100
AcDb2dVertex
 10
42.5
 20
2.86603
  0
SEQEND
  5
237
100
AcDbEntity
  8
Solder_Pad_1_Top
  0
HATCH
  5
238
100
AcDbEntity
  8
Solder_Pad_1_Top
100
AcDbHatch
 10
0.0
 20
0.0
 30
0.0
210
0.0
220
0.0
230
1.0
  2
SOLID
 70
       1
 71
       1
 91
        1
 92
        1
 93
        6
 72
       1
 10
39.0
 20
1.13398
 11
40.5
 21
0.26795
 72
       1
 10
40.5
 20
0.26795
 11
42.0
 21
1.13398
 72
       1
 10
42.0
 20
1.13398
 11
42.0
 21
2.8660299999999999
 72
       1
 10
42.0
 20
2.8660299999999999
 11
40.5
 21
3.7320500000000001
 72
       1
 10
40.5
 20
3.7320500000000001
 11
39.0
 21
2.8660299999999999
 72
       1
 10
39.0
 20
2.8660299999999999
 11
39.0
 21
1.13398
 97
        0
 75
       0
 76
       2
 98
        1
 10
0.0
 20
0.0
  0
POLYLINE
  5
239
100
AcDbEntity
  8
Solder_Pad_1_Top
100
AcDb2dPolyline
 66
       1
 10
0.0
 20
0.0
 30
0.0
 70
       1
  0
VERTEX
  5
23A
100
AcDbEntity
  8
Solder_Pad_1_Top
100
AcDbVertex
100
AcDb2dVertex
 10
39.0
 20
2.86603
  0
VERTEX
  5
23B
100
AcDbEntity
  8
Solder_Pad_1_Top
100
AcDbVertex
100
AcDb2dVertex
 10
39.0
 20
2.86603
  0
VERTEX
  5
23C
100
AcDbEntity
  8
Solder_Pad_1_Top
100
AcDbVertex
100
AcDb2dVertex
 10
40.5
 20
3.73205
  0
VERTEX
  5
23D
100
AcDbEntity
  8
Solder_Pad_1_Top
100
AcDbVertex
100
AcDb2dVertex
 10
42.0
 20
2.86603
  0
VERTEX
  5
23E
100
AcDbEntity
  8
Solder_Pad_1_Top
100
AcDbVertex
100
AcDb2dVertex
 10
42.0
 20
1.13398
  0
VERTEX
  5
23F
100
AcDbEntity
  8
Solder_Pad_1_Top
100
AcDbVertex
100
AcDb2dVertex
 10
40.5
 20
0.26795
  0
VERTEX
  5
240
100
AcDbEntity
  8
Solder_Pad_1_Top
100
AcDbVertex
100
AcDb2dVertex
 10
39.0
 20
1.13398
  0
VERTEX
  5
241
100
AcDbEntity
  8
Solder_Pad_1_Top
100
AcDbVertex
100
AcDb2dVertex
 10
39.0
 20
2.86603
  0
SEQEND
  5
242
100
AcDbEntity
  8
Solder_Pad_1_Top
  0
HATCH
  5
243
100
AcDbEntity
  8
Solder_Pad_1_Top
100
AcDbHatch
 10
0.0
 20
0.0
 30
0.0
210
0.0
220
0.0
230
1.0
  2
SOLID
 70
       1
 71
       1
 91
        1
 92
        1
 93
        6
 72
       1
 10
35.5
 20
1.13398
 11
37.0
 21
0.26795
 72
       1
 10
37.0
 20
0.26795
 11
38.5
 21
1.13398
 72
       1
 10
38.5
 20
1.13398
 11
38.5
 21
2.8660299999999999
 72
       1
 10
38.5
 20
2.8660299999999999
 11
37.0
 21
3.7320500000000001
 72
       1
 10
37.0
 20
3.7320500000000001
 11
35.5
 21
2.8660299999999999
 72
       1
 10
35.5
 20
2.8660299999999999
 11
35.5
 21
1.13398
 97
        0
 75
       0
 76
       2
 98
        1
 10
0.0
 20
0.0
  0
POLYLINE
  5
244
100
AcDbEntity
  8
Solder_Pad_1_Top
100
AcDb2dPolyline
 66
       1
 10
0.0
 20
0.0
 30
0.0
 70
       1
  0
VERTEX
  5
245
100
AcDbEntity
  8
Solder_Pad_1_Top
100
AcDbVertex
100
AcDb2dVertex
 10
35.5
 20
2.86603
  0
VERTEX
  5
246
100
AcDbEntity
  8
Solder_Pad_1_Top
100
AcDbVertex
100
AcDb2dVertex
 10
35.5
 20
2.86603
  0
VERTEX
  5
247
100
AcDbEntity
  8
Solder_Pad_1_Top
100
AcDbVertex
100
AcDb2dVertex
 10
37.0
 20
3.73205
  0
VERTEX
  5
248
100
AcDbEntity
  8
Solder_Pad_1_Top
100
AcDbVertex
100
AcDb2dVertex
 10
38.5
 20
2.86603
  0
VERTEX
  5
249
100
AcDbEntity
  8
Solder_Pad_1_Top
100
AcDbVertex
100
AcDb2dVertex
 10
38.5
 20
1.13398
  0
VERTEX
  5
24A
100
AcDbEntity
  8
Solder_Pad_1_Top
100
AcDbVertex
100
AcDb2dVertex
 10
37.0
 20
0.26795
  0
VERTEX
  5
24B
100
AcDbEntity
  8
Solder_Pad_1_Top
100
AcDbVertex
100
AcDb2dVertex
 10
35.5
 20
1.13398
  0
VERTEX
  5
24C
100
AcDbEntity
  8
Solder_Pad_1_Top
100
AcDbVertex
100
AcDb2dVertex
 10
35.5
 20
2.86603
  0
SEQEND
  5
24D
100
AcDbEntity
  8
Solder_Pad_1_Top
  0
HATCH
  5
24E
100
AcDbEntity
  8
Solder_Pad_1_Top
100
AcDbHatch
 10
0.0
 20
0.0
 30
0.0
210
0.0
220
0.0
230
1.0
  2
SOLID
 70
       1
 71
       1
 91
        1
 92
        1
 93
        6
 72
       1
 10
32.0
 20
1.13398
 11
33.5
 21
0.26795
 72
       1
 10
33.5
 20
0.26795
 11
35.0
 21
1.13398
 72
       1
 10
35.0
 20
1.13398
 11
35.0
 21
2.8660299999999999
 72
       1
 10
35.0
 20
2.8660299999999999
 11
33.5
 21
3.7320500000000001
 72
       1
 10
33.5
 20
3.7320500000000001
 11
32.0
 21
2.8660299999999999
 72
       1
 10
32.0
 20
2.8660299999999999
 11
32.0
 21
1.13398
 97
        0
 75
       0
 76
       2
 98
        1
 10
0.0
 20
0.0
  0
POLYLINE
  5
24F
100
AcDbEntity
  8
Solder_Pad_1_Top
100
AcDb2dPolyline
 66
       1
 10
0.0
 20
0.0
 30
0.0
 70
       1
  0
VERTEX
  5
250
100
AcDbEntity
  8
Solder_Pad_1_Top
100
AcDbVertex
100
AcDb2dVertex
 10
32.0
 20
2.86603
  0
VERTEX
  5
251
100
AcDbEntity
  8
Solder_Pad_1_Top
100
AcDbVertex
100
AcDb2dVertex
 10
32.0
 20
2.86603
  0
VERTEX
  5
252
100
AcDbEntity
  8
Solder_Pad_1_Top
100
AcDbVertex
100
AcDb2dVertex
 10
33.5
 20
3.73205
  0
VERTEX
  5
253
100
AcDbEntity
  8
Solder_Pad_1_Top
100
AcDbVertex
100
AcDb2dVertex
 10
35.0
 20
2.86603
  0
VERTEX
  5
254
100
AcDbEntity
  8
Solder_Pad_1_Top
100
AcDbVertex
100
AcDb2dVertex
 10
35.0
 20
1.13398
  0
VERTEX
  5
255
100
AcDbEntity
  8
Solder_Pad_1_Top
100
AcDbVertex
100
AcDb2dVertex
 10
33.5
 20
0.26795
  0
VERTEX
  5
256
100
AcDbEntity
  8
Solder_Pad_1_Top
100
AcDbVertex
100
AcDb2dVertex
 10
32.0
 20
1.13398
  0
VERTEX
  5
257
100
AcDbEntity
  8
Solder_Pad_1_Top
100
AcDbVertex
100
AcDb2dVertex
 10
32.0
 20
2.86603
  0
SEQEND
  5
258
100
AcDbEntity
  8
Solder_Pad_1_Top
  0
HATCH
  5
259
100
AcDbEntity
  8
Solder_Pad_1_Top
100
AcDbHatch
 10
0.0
 20
0.0
 30
0.0
210
0.0
220
0.0
230
1.0
  2
SOLID
 70
       1
 71
       1
 91
        1
 92
        1
 93
        6
 72
       1
 10
53.0
 20
7.1339800000000002
 11
54.5
 21
6.2679499999999999
 72
       1
 10
54.5
 20
6.2679499999999999
 11
56.0
 21
7.1339800000000002
 72
       1
 10
56.0
 20
7.1339800000000002
 11
56.0
 21
8.8660300000000003
 72
       1
 10
56.0
 20
8.8660300000000003
 11
54.5
 21
9.7320499999999992
 72
       1
 10
54.5
 20
9.7320499999999992
 11
53.0
 21
8.8660300000000003
 72
       1
 10
53.0
 20
8.8660300000000003
 11
53.0
 21
7.1339800000000002
 97
        0
 75
       0
 76
       2
 98
        1
 10
0.0
 20
0.0
  0
POLYLINE
  5
25A
100
AcDbEntity
  8
Solder_Pad_1_Top
100
AcDb2dPolyline
 66
       1
 10
0.0
 20
0.0
 30
0.0
 70
       1
  0
VERTEX
  5
25B
100
AcDbEntity
  8
Solder_Pad_1_Top
100
AcDbVertex
100
AcDb2dVertex
 10
53.0
 20
8.86603
  0
VERTEX
  5
25C
100
AcDbEntity
  8
Solder_Pad_1_Top
100
AcDbVertex
100
AcDb2dVertex
 10
53.0
 20
8.86603
  0
VERTEX
  5
25D
100
AcDbEntity
  8
Solder_Pad_1_Top
100
AcDbVertex
100
AcDb2dVertex
 10
54.5
 20
9.73205
  0
VERTEX
  5
25E
100
AcDbEntity
  8
Solder_Pad_1_Top
100
AcDbVertex
100
AcDb2dVertex
 10
56.0
 20
8.86603
  0
VERTEX
  5
25F
100
AcDbEntity
  8
Solder_Pad_1_Top
100
AcDbVertex
100
AcDb2dVertex
 10
56.0
 20
7.13398
  0
VERTEX
  5
260
100
AcDbEntity
  8
Solder_Pad_1_Top
100
AcDbVertex
100
AcDb2dVertex
 10
54.5
 20
6.26795
  0
VERTEX
  5
261
100
AcDbEntity
  8
Solder_Pad_1_Top
100
AcDbVertex
100
AcDb2dVertex
 10
53.0
 20
7.13398
  0
VERTEX
  5
262
100
AcDbEntity
  8
Solder_Pad_1_Top
100
AcDbVertex
100
AcDb2dVertex
 10
53.0
 20
8.86603
  0
SEQEND
  5
263
100
AcDbEntity
  8
Solder_Pad_1_Top
  0
HATCH
  5
264
100
AcDbEntity
  8
Solder_Pad_1_Top
100
AcDbHatch
 10
0.0
 20
0.0
 30
0.0
210
0.0
220
0.0
230
1.0
  2
SOLID
 70
       1
 71
       1
 91
        1
 92
        1
 93
        6
 72
       1
 10
49.5
 20
7.1339800000000002
 11
51.0
 21
6.2679499999999999
 72
       1
 10
51.0
 20
6.2679499999999999
 11
52.5
 21
7.1339800000000002
 72
       1
 10
52.5
 20
7.1339800000000002
 11
52.5
 21
8.8660300000000003
 72
       1
 10
52.5
 20
8.8660300000000003
 11
51.0
 21
9.7320499999999992
 72
       1
 10
51.0
 20
9.7320499999999992
 11
49.5
 21
8.8660300000000003
 72
       1
 10
49.5
 20
8.8660300000000003
 11
49.5
 21
7.1339800000000002
 97
        0
 75
       0
 76
       2
 98
        1
 10
0.0
 20
0.0
  0
POLYLINE
  5
265
100
AcDbEntity
  8
Solder_Pad_1_Top
100
AcDb2dPolyline
 66
       1
 10
0.0
 20
0.0
 30
0.0
 70
       1
  0
VERTEX
  5
266
100
AcDbEntity
  8
Solder_Pad_1_Top
100
AcDbVertex
100
AcDb2dVertex
 10
49.5
 20
8.86603
  0
VERTEX
  5
267
100
AcDbEntity
  8
Solder_Pad_1_Top
100
AcDbVertex
100
AcDb2dVertex
 10
49.5
 20
8.86603
  0
VERTEX
  5
268
100
AcDbEntity
  8
Solder_Pad_1_Top
100
AcDbVertex
100
AcDb2dVertex
 10
51.0
 20
9.73205
  0
VERTEX
  5
269
100
AcDbEntity
  8
Solder_Pad_1_Top
100
AcDbVertex
100
AcDb2dVertex
 10
52.5
 20
8.86603
  0
VERTEX
  5
26A
100
AcDbEntity
  8
Solder_Pad_1_Top
100
AcDbVertex
100
AcDb2dVertex
 10
52.5
 20
7.13398
  0
VERTEX
  5
26B
100
AcDbEntity
  8
Solder_Pad_1_Top
100
AcDbVertex
100
AcDb2dVertex
 10
51.0
 20
6.26795
  0
VERTEX
  5
26C
100
AcDbEntity
  8
Solder_Pad_1_Top
100
AcDbVertex
100
AcDb2dVertex
 10
49.5
 20
7.13398
  0
VERTEX
  5
26D
100
AcDbEntity
  8
Solder_Pad_1_Top
100
AcDbVertex
100
AcDb2dVertex
 10
49.5
 20
8.86603
  0
SEQEND
  5
26E
100
AcDbEntity
  8
Solder_Pad_1_Top
  0
HATCH
  5
26F
100
AcDbEntity
  8
Solder_Pad_1_Top
100
AcDbHatch
 10
0.0
 20
0.0
 30
0.0
210
0.0
220
0.0
230
1.0
  2
SOLID
 70
       1
 71
       1
 91
        1
 92
        1
 93
        6
 72
       1
 10
46.0
 20
7.1339800000000002
 11
47.5
 21
6.2679499999999999
 72
       1
 10
47.5
 20
6.2679499999999999
 11
49.0
 21
7.1339800000000002
 72
       1
 10
49.0
 20
7.1339800000000002
 11
49.0
 21
8.8660300000000003
 72
       1
 10
49.0
 20
8.8660300000000003
 11
47.5
 21
9.7320499999999992
 72
       1
 10
47.5
 20
9.7320499999999992
 11
46.0
 21
8.8660300000000003
 72
       1
 10
46.0
 20
8.8660300000000003
 11
46.0
 21
7.1339800000000002
 97
        0
 75
       0
 76
       2
 98
        1
 10
0.0
 20
0.0
  0
POLYLINE
  5
270
100
AcDbEntity
  8
Solder_Pad_1_Top
100
AcDb2dPolyline
 66
       1
 10
0.0
 20
0.0
 30
0.0
 70
       1
  0
VERTEX
  5
271
100
AcDbEntity
  8
Solder_Pad_1_Top
100
AcDbVertex
100
AcDb2dVertex
 10
46.0
 20
8.86603
  0
VERTEX
  5
272
100
AcDbEntity
  8
Solder_Pad_1_Top
100
AcDbVertex
100
AcDb2dVertex
 10
46.0
 20
8.86603
  0
VERTEX
  5
273
100
AcDbEntity
  8
Solder_Pad_1_Top
100
AcDbVertex
100
AcDb2dVertex
 10
47.5
 20
9.73205
  0
VERTEX
  5
274
100
AcDbEntity
  8
Solder_Pad_1_Top
100
AcDbVertex
100
AcDb2dVertex
 10
49.0
 20
8.86603
  0
VERTEX
  5
275
100
AcDbEntity
  8
Solder_Pad_1_Top
100
AcDbVertex
100
AcDb2dVertex
 10
49.0
 20
7.13398
  0
VERTEX
  5
276
100
AcDbEntity
  8
Solder_Pad_1_Top
100
AcDbVertex
100
AcDb2dVertex
 10
47.5
 20
6.26795
  0
VERTEX
  5
277
100
AcDbEntity
  8
Solder_Pad_1_Top
100
AcDbVertex
100
AcDb2dVertex
 10
46.0
 20
7.13398
  0
VERTEX
  5
278
100
AcDbEntity
  8
Solder_Pad_1_Top
100
AcDbVertex
100
AcDb2dVertex
 10
46.0
 20
8.86603
  0
SEQEND
  5
279
100
AcDbEntity
  8
Solder_Pad_1_Top
  0
HATCH
  5
27A
100
AcDbEntity
  8
Solder_Pad_1_Top
100
AcDbHatch
 10
0.0
 20
0.0
 30
0.0
210
0.0
220
0.0
230
1.0
  2
SOLID
 70
       1
 71
       1
 91
        1
 92
        1
 93
        6
 72
       1
 10
42.5
 20
7.1339800000000002
 11
44.0
 21
6.2679499999999999
 72
       1
 10
44.0
 20
6.2679499999999999
 11
45.5
 21
7.1339800000000002
 72
       1
 10
45.5
 20
7.1339800000000002
 11
45.5
 21
8.8660300000000003
 72
       1
 10
45.5
 20
8.8660300000000003
 11
44.0
 21
9.7320499999999992
 72
       1
 10
44.0
 20
9.7320499999999992
 11
42.5
 21
8.8660300000000003
 72
       1
 10
42.5
 20
8.8660300000000003
 11
42.5
 21
7.1339800000000002
 97
        0
 75
       0
 76
       2
 98
        1
 10
0.0
 20
0.0
  0
POLYLINE
  5
27B
100
AcDbEntity
  8
Solder_Pad_1_Top
100
AcDb2dPolyline
 66
       1
 10
0.0
 20
0.0
 30
0.0
 70
       1
  0
VERTEX
  5
27C
100
AcDbEntity
  8
Solder_Pad_1_Top
100
AcDbVertex
100
AcDb2dVertex
 10
42.5
 20
8.86603
  0
VERTEX
  5
27D
100
AcDbEntity
  8
Solder_Pad_1_Top
100
AcDbVertex
100
AcDb2dVertex
 10
42.5
 20
8.86603
  0
VERTEX
  5
27E
100
AcDbEntity
  8
Solder_Pad_1_Top
100
AcDbVertex
100
AcDb2dVertex
 10
44.0
 20
9.73205
  0
VERTEX
  5
27F
100
AcDbEntity
  8
Solder_Pad_1_Top
100
AcDbVertex
100
AcDb2dVertex
 10
45.5
 20
8.86603
  0
VERTEX
  5
280
100
AcDbEntity
  8
Solder_Pad_1_Top
100
AcDbVertex
100
AcDb2dVertex
 10
45.5
 20
7.13398
  0
VERTEX
  5
281
100
AcDbEntity
  8
Solder_Pad_1_Top
100
AcDbVertex
100
AcDb2dVertex
 10
44.0
 20
6.26795
  0
VERTEX
  5
282
100
AcDbEntity
  8
Solder_Pad_1_Top
100
AcDbVertex
100
AcDb2dVertex
 10
42.5
 20
7.13398
  0
VERTEX
  5
283
100
AcDbEntity
  8
Solder_Pad_1_Top
100
AcDbVertex
100
AcDb2dVertex
 10
42.5
 20
8.86603
  0
SEQEND
  5
284
100
AcDbEntity
  8
Solder_Pad_1_Top
  0
HATCH
  5
285
100
AcDbEntity
  8
Solder_Pad_1_Top
100
AcDbHatch
 10
0.0
 20
0.0
 30
0.0
210
0.0
220
0.0
230
1.0
  2
SOLID
 70
       1
 71
       1
 91
        1
 92
        1
 93
        6
 72
       1
 10
39.0
 20
7.1339800000000002
 11
40.5
 21
6.2679499999999999
 72
       1
 10
40.5
 20
6.2679499999999999
 11
42.0
 21
7.1339800000000002
 72
       1
 10
42.0
 20
7.1339800000000002
 11
42.0
 21
8.8660300000000003
 72
       1
 10
42.0
 20
8.8660300000000003
 11
40.5
 21
9.7320499999999992
 72
       1
 10
40.5
 20
9.7320499999999992
 11
39.0
 21
8.8660300000000003
 72
       1
 10
39.0
 20
8.8660300000000003
 11
39.0
 21
7.1339800000000002
 97
        0
 75
       0
 76
       2
 98
        1
 10
0.0
 20
0.0
  0
POLYLINE
  5
286
100
AcDbEntity
  8
Solder_Pad_1_Top
100
AcDb2dPolyline
 66
       1
 10
0.0
 20
0.0
 30
0.0
 70
       1
  0
VERTEX
  5
287
100
AcDbEntity
  8
Solder_Pad_1_Top
100
AcDbVertex
100
AcDb2dVertex
 10
39.0
 20
8.86603
  0
VERTEX
  5
288
100
AcDbEntity
  8
Solder_Pad_1_Top
100
AcDbVertex
100
AcDb2dVertex
 10
39.0
 20
8.86603
  0
VERTEX
  5
289
100
AcDbEntity
  8
Solder_Pad_1_Top
100
AcDbVertex
100
AcDb2dVertex
 10
40.5
 20
9.73205
  0
VERTEX
  5
28A
100
AcDbEntity
  8
Solder_Pad_1_Top
100
AcDbVertex
100
AcDb2dVertex
 10
42.0
 20
8.86603
  0
VERTEX
  5
28B
100
AcDbEntity
  8
Solder_Pad_1_Top
100
AcDbVertex
100
AcDb2dVertex
 10
42.0
 20
7.13398
  0
VERTEX
  5
28C
100
AcDbEntity
  8
Solder_Pad_1_Top
100
AcDbVertex
100
AcDb2dVertex
 10
40.5
 20
6.26795
  0
VERTEX
  5
28D
100
AcDbEntity
  8
Solder_Pad_1_Top
100
AcDbVertex
100
AcDb2dVertex
 10
39.0
 20
7.13398
  0
VERTEX
  5
28E
100
AcDbEntity
  8
Solder_Pad_1_Top
100
AcDbVertex
100
AcDb2dVertex
 10
39.0
 20
8.86603
  0
SEQEND
  5
28F
100
AcDbEntity
  8
Solder_Pad_1_Top
  0
HATCH
  5
290
100
AcDbEntity
  8
Solder_Pad_1_Top
100
AcDbHatch
 10
0.0
 20
0.0
 30
0.0
210
0.0
220
0.0
230
1.0
  2
SOLID
 70
       1
 71
       1
 91
        1
 92
        1
 93
        6
 72
       1
 10
35.5
 20
7.1339800000000002
 11
37.0
 21
6.2679499999999999
 72
       1
 10
37.0
 20
6.2679499999999999
 11
38.5
 21
7.1339800000000002
 72
       1
 10
38.5
 20
7.1339800000000002
 11
38.5
 21
8.8660300000000003
 72
       1
 10
38.5
 20
8.8660300000000003
 11
37.0
 21
9.7320499999999992
 72
       1
 10
37.0
 20
9.7320499999999992
 11
35.5
 21
8.8660300000000003
 72
       1
 10
35.5
 20
8.8660300000000003
 11
35.5
 21
7.1339800000000002
 97
        0
 75
       0
 76
       2
 98
        1
 10
0.0
 20
0.0
  0
POLYLINE
  5
291
100
AcDbEntity
  8
Solder_Pad_1_Top
100
AcDb2dPolyline
 66
       1
 10
0.0
 20
0.0
 30
0.0
 70
       1
  0
VERTEX
  5
292
100
AcDbEntity
  8
Solder_Pad_1_Top
100
AcDbVertex
100
AcDb2dVertex
 10
35.5
 20
8.86603
  0
VERTEX
  5
293
100
AcDbEntity
  8
Solder_Pad_1_Top
100
AcDbVertex
100
AcDb2dVertex
 10
35.5
 20
8.86603
  0
VERTEX
  5
294
100
AcDbEntity
  8
Solder_Pad_1_Top
100
AcDbVertex
100
AcDb2dVertex
 10
37.0
 20
9.73205
  0
VERTEX
  5
295
100
AcDbEntity
  8
Solder_Pad_1_Top
100
AcDbVertex
100
AcDb2dVertex
 10
38.5
 20
8.86603
  0
VERTEX
  5
296
100
AcDbEntity
  8
Solder_Pad_1_Top
100
AcDbVertex
100
AcDb2dVertex
 10
38.5
 20
7.13398
  0
VERTEX
  5
297
100
AcDbEntity
  8
Solder_Pad_1_Top
100
AcDbVertex
100
AcDb2dVertex
 10
37.0
 20
6.26795
  0
VERTEX
  5
298
100
AcDbEntity
  8
Solder_Pad_1_Top
100
AcDbVertex
100
AcDb2dVertex
 10
35.5
 20
7.13398
  0
VERTEX
  5
299
100
AcDbEntity
  8
Solder_Pad_1_Top
100
AcDbVertex
100
AcDb2dVertex
 10
35.5
 20
8.86603
  0
SEQEND
  5
29A
100
AcDbEntity
  8
Solder_Pad_1_Top
  0
HATCH
  5
29B
100
AcDbEntity
  8
Solder_Pad_1_Top
100
AcDbHatch
 10
0.0
 20
0.0
 30
0.0
210
0.0
220
0.0
230
1.0
  2
SOLID
 70
       1
 71
       1
 91
        1
 92
        1
 93
        6
 72
       1
 10
32.0
 20
7.1339800000000002
 11
33.5
 21
6.2679499999999999
 72
       1
 10
33.5
 20
6.2679499999999999
 11
35.0
 21
7.1339800000000002
 72
       1
 10
35.0
 20
7.1339800000000002
 11
35.0
 21
8.8660300000000003
 72
       1
 10
35.0
 20
8.8660300000000003
 11
33.5
 21
9.7320499999999992
 72
       1
 10
33.5
 20
9.7320499999999992
 11
32.0
 21
8.8660300000000003
 72
       1
 10
32.0
 20
8.8660300000000003
 11
32.0
 21
7.1339800000000002
 97
        0
 75
       0
 76
       2
 98
        1
 10
0.0
 20
0.0
  0
POLYLINE
  5
29C
100
AcDbEntity
  8
Solder_Pad_1_Top
100
AcDb2dPolyline
 66
       1
 10
0.0
 20
0.0
 30
0.0
 70
       1
  0
VERTEX
  5
29D
100
AcDbEntity
  8
Solder_Pad_1_Top
100
AcDbVertex
100
AcDb2dVertex
 10
32.0
 20
8.86603
  0
VERTEX
  5
29E
100
AcDbEntity
  8
Solder_Pad_1_Top
100
AcDbVertex
100
AcDb2dVertex
 10
32.0
 20
8.86603
  0
VERTEX
  5
29F
100
AcDbEntity
  8
Solder_Pad_1_Top
100
AcDbVertex
100
AcDb2dVertex
 10
33.5
 20
9.73205
  0
VERTEX
  5
2A0
100
AcDbEntity
  8
Solder_Pad_1_Top
100
AcDbVertex
100
AcDb2dVertex
 10
35.0
 20
8.86603
  0
VERTEX
  5
2A1
100
AcDbEntity
  8
Solder_Pad_1_Top
100
AcDbVertex
100
AcDb2dVertex
 10
35.0
 20
7.13398
  0
VERTEX
  5
2A2
100
AcDbEntity
  8
Solder_Pad_1_Top
100
AcDbVertex
100
AcDb2dVertex
 10
33.5
 20
6.26795
  0
VERTEX
  5
2A3
100
AcDbEntity
  8
Solder_Pad_1_Top
100
AcDbVertex
100
AcDb2dVertex
 10
32.0
 20
7.13398
  0
VERTEX
  5
2A4
100
AcDbEntity
  8
Solder_Pad_1_Top
100
AcDbVertex
100
AcDb2dVertex
 10
32.0
 20
8.86603
  0
SEQEND
  5
2A5
100
AcDbEntity
  8
Solder_Pad_1_Top
  0
HATCH
  5
2A6
100
AcDbEntity
  8
Solder_Pad_1_Top
100
AcDbHatch
 10
0.0
 20
0.0
 30
0.0
210
0.0
220
0.0
230
1.0
  2
SOLID
 70
       1
 71
       1
 91
        1
 92
        1
 93
        6
 72
       1
 10
44.25
 20
4.1339800000000002
 11
45.75
 21
3.2679499999999999
 72
       1
 10
45.75
 20
3.2679499999999999
 11
47.25
 21
4.1339800000000002
 72
       1
 10
47.25
 20
4.1339800000000002
 11
47.25
 21
5.8660300000000003
 72
       1
 10
47.25
 20
5.8660300000000003
 11
45.75
 21
6.7320500000000001
 72
       1
 10
45.75
 20
6.7320500000000001
 11
44.25
 21
5.8660300000000003
 72
       1
 10
44.25
 20
5.8660300000000003
 11
44.25
 21
4.1339800000000002
 97
        0
 75
       0
 76
       2
 98
        1
 10
0.0
 20
0.0
  0
POLYLINE
  5
2A7
100
AcDbEntity
  8
Solder_Pad_1_Top
100
AcDb2dPolyline
 66
       1
 10
0.0
 20
0.0
 30
0.0
 70
       1
  0
VERTEX
  5
2A8
100
AcDbEntity
  8
Solder_Pad_1_Top
100
AcDbVertex
100
AcDb2dVertex
 10
44.25
 20
5.86603
  0
VERTEX
  5
2A9
100
AcDbEntity
  8
Solder_Pad_1_Top
100
AcDbVertex
100
AcDb2dVertex
 10
44.25
 20
5.86603
  0
VERTEX
  5
2AA
100
AcDbEntity
  8
Solder_Pad_1_Top
100
AcDbVertex
100
AcDb2dVertex
 10
45.75
 20
6.73205
  0
VERTEX
  5
2AB
100
AcDbEntity
  8
Solder_Pad_1_Top
100
AcDbVertex
100
AcDb2dVertex
 10
47.25
 20
5.86603
  0
VERTEX
  5
2AC
100
AcDbEntity
  8
Solder_Pad_1_Top
100
AcDbVertex
100
AcDb2dVertex
 10
47.25
 20
4.13398
  0
VERTEX
  5
2AD
100
AcDbEntity
  8
Solder_Pad_1_Top
100
AcDbVertex
100
AcDb2dVertex
 10
45.75
 20
3.26795
  0
VERTEX
  5
2AE
100
AcDbEntity
  8
Solder_Pad_1_Top
100
AcDbVertex
100
AcDb2dVertex
 10
44.25
 20
4.13398
  0
VERTEX
  5
2AF
100
AcDbEntity
  8
Solder_Pad_1_Top
100
AcDbVertex
100
AcDb2dVertex
 10
44.25
 20
5.86603
  0
SEQEND
  5
2B0
100
AcDbEntity
  8
Solder_Pad_1_Top
  0
HATCH
  5
2B1
100
AcDbEntity
  8
Solder_Pad_1_Top
100
AcDbHatch
 10
0.0
 20
0.0
 30
0.0
210
0.0
220
0.0
230
1.0
  2
SOLID
 70
       1
 71
       1
 91
        1
 92
        1
 93
        6
 72
       1
 10
40.75
 20
4.1339800000000002
 11
42.25
 21
3.2679499999999999
 72
       1
 10
42.25
 20
3.2679499999999999
 11
43.75
 21
4.1339800000000002
 72
       1
 10
43.75
 20
4.1339800000000002
 11
43.75
 21
5.8660300000000003
 72
       1
 10
43.75
 20
5.8660300000000003
 11
42.25
 21
6.7320500000000001
 72
       1
 10
42.25
 20
6.7320500000000001
 11
40.75
 21
5.8660300000000003
 72
       1
 10
40.75
 20
5.8660300000000003
 11
40.75
 21
4.1339800000000002
 97
        0
 75
       0
 76
       2
 98
        1
 10
0.0
 20
0.0
  0
POLYLINE
  5
2B2
100
AcDbEntity
  8
Solder_Pad_1_Top
100
AcDb2dPolyline
 66
       1
 10
0.0
 20
0.0
 30
0.0
 70
       1
  0
VERTEX
  5
2B3
100
AcDbEntity
  8
Solder_Pad_1_Top
100
AcDbVertex
100
AcDb2dVertex
 10
40.75
 20
5.86603
  0
VERTEX
  5
2B4
100
AcDbEntity
  8
Solder_Pad_1_Top
100
AcDbVertex
100
AcDb2dVertex
 10
40.75
 20
5.86603
  0
VERTEX
  5
2B5
100
AcDbEntity
  8
Solder_Pad_1_Top
100
AcDbVertex
100
AcDb2dVertex
 10
42.25
 20
6.73205
  0
VERTEX
  5
2B6
100
AcDbEntity
  8
Solder_Pad_1_Top
100
AcDbVertex
100
AcDb2dVertex
 10
43.75
 20
5.86603
  0
VERTEX
  5
2B7
100
AcDbEntity
  8
Solder_Pad_1_Top
100
AcDbVertex
100
AcDb2dVertex
 10
43.75
 20
4.13398
  0
VERTEX
  5
2B8
100
AcDbEntity
  8
Solder_Pad_1_Top
100
AcDbVertex
100
AcDb2dVertex
 10
42.25
 20
3.26795
  0
VERTEX
  5
2B9
100
AcDbEntity
  8
Solder_Pad_1_Top
100
AcDbVertex
100
AcDb2dVertex
 10
40.75
 20
4.13398
  0
VERTEX
  5
2BA
100
AcDbEntity
  8
Solder_Pad_1_Top
100
AcDbVertex
100
AcDb2dVertex
 10
40.75
 20
5.86603
  0
SEQEND
  5
2BB
100
AcDbEntity
  8
Solder_Pad_1_Top
  0
HATCH
  5
2BC
100
AcDbEntity
  8
Solder_Pad_1_Top
100
AcDbHatch
 10
0.0
 20
0.0
 30
0.0
210
0.0
220
0.0
230
1.0
  2
SOLID
 70
       1
 71
       1
 91
        1
 92
        1
 93
        6
 72
       1
 10
37.25
 20
4.1339800000000002
 11
38.75
 21
3.2679499999999999
 72
       1
 10
38.75
 20
3.2679499999999999
 11
40.25
 21
4.1339800000000002
 72
       1
 10
40.25
 20
4.1339800000000002
 11
40.25
 21
5.8660300000000003
 72
       1
 10
40.25
 20
5.8660300000000003
 11
38.75
 21
6.7320500000000001
 72
       1
 10
38.75
 20
6.7320500000000001
 11
37.25
 21
5.8660300000000003
 72
       1
 10
37.25
 20
5.8660300000000003
 11
37.25
 21
4.1339800000000002
 97
        0
 75
       0
 76
       2
 98
        1
 10
0.0
 20
0.0
  0
POLYLINE
  5
2BD
100
AcDbEntity
  8
Solder_Pad_1_Top
100
AcDb2dPolyline
 66
       1
 10
0.0
 20
0.0
 30
0.0
 70
       1
  0
VERTEX
  5
2BE
100
AcDbEntity
  8
Solder_Pad_1_Top
100
AcDbVertex
100
AcDb2dVertex
 10
37.25
 20
5.86603
  0
VERTEX
  5
2BF
100
AcDbEntity
  8
Solder_Pad_1_Top
100
AcDbVertex
100
AcDb2dVertex
 10
37.25
 20
5.86603
  0
VERTEX
  5
2C0
100
AcDbEntity
  8
Solder_Pad_1_Top
100
AcDbVertex
100
AcDb2dVertex
 10
38.75
 20
6.73205
  0
VERTEX
  5
2C1
100
AcDbEntity
  8
Solder_Pad_1_Top
100
AcDbVertex
100
AcDb2dVertex
 10
40.25
 20
5.86603
  0
VERTEX
  5
2C2
100
AcDbEntity
  8
Solder_Pad_1_Top
100
AcDbVertex
100
AcDb2dVertex
 10
40.25
 20
4.13398
  0
VERTEX
  5
2C3
100
AcDbEntity
  8
Solder_Pad_1_Top
100
AcDbVertex
100
AcDb2dVertex
 10
38.75
 20
3.26795
  0
VERTEX
  5
2C4
100
AcDbEntity
  8
Solder_Pad_1_Top
100
AcDbVertex
100
AcDb2dVertex
 10
37.25
 20
4.13398
  0
VERTEX
  5
2C5
100
AcDbEntity
  8
Solder_Pad_1_Top
100
AcDbVertex
100
AcDb2dVertex
 10
37.25
 20
5.86603
  0
SEQEND
  5
2C6
100
AcDbEntity
  8
Solder_Pad_1_Top
  0
HATCH
  5
2C7
100
AcDbEntity
  8
Solder_Pad_1_Top
100
AcDbHatch
 10
0.0
 20
0.0
 30
0.0
210
0.0
220
0.0
230
1.0
  2
SOLID
 70
       1
 71
       1
 91
        1
 92
        1
 93
        6
 72
       1
 10
33.75
 20
4.1339800000000002
 11
35.25
 21
3.2679499999999999
 72
       1
 10
35.25
 20
3.2679499999999999
 11
36.75
 21
4.1339800000000002
 72
       1
 10
36.75
 20
4.1339800000000002
 11
36.75
 21
5.8660300000000003
 72
       1
 10
36.75
 20
5.8660300000000003
 11
35.25
 21
6.7320500000000001
 72
       1
 10
35.25
 20
6.7320500000000001
 11
33.75
 21
5.8660300000000003
 72
       1
 10
33.75
 20
5.8660300000000003
 11
33.75
 21
4.1339800000000002
 97
        0
 75
       0
 76
       2
 98
        1
 10
0.0
 20
0.0
  0
POLYLINE
  5
2C8
100
AcDbEntity
  8
Solder_Pad_1_Top
100
AcDb2dPolyline
 66
       1
 10
0.0
 20
0.0
 30
0.0
 70
       1
  0
VERTEX
  5
2C9
100
AcDbEntity
  8
Solder_Pad_1_Top
100
AcDbVertex
100
AcDb2dVertex
 10
33.75
 20
5.86603
  0
VERTEX
  5
2CA
100
AcDbEntity
  8
Solder_Pad_1_Top
100
AcDbVertex
100
AcDb2dVertex
 10
33.75
 20
5.86603
  0
VERTEX
  5
2CB
100
AcDbEntity
  8
Solder_Pad_1_Top
100
AcDbVertex
100
AcDb2dVertex
 10
35.25
 20
6.73205
  0
VERTEX
  5
2CC
100
AcDbEntity
  8
Solder_Pad_1_Top
100
AcDbVertex
100
AcDb2dVertex
 10
36.75
 20
5.86603
  0
VERTEX
  5
2CD
100
AcDbEntity
  8
Solder_Pad_1_Top
100
AcDbVertex
100
AcDb2dVertex
 10
36.75
 20
4.13398
  0
VERTEX
  5
2CE
100
AcDbEntity
  8
Solder_Pad_1_Top
100
AcDbVertex
100
AcDb2dVertex
 10
35.25
 20
3.26795
  0
VERTEX
  5
2CF
100
AcDbEntity
  8
Solder_Pad_1_Top
100
AcDbVertex
100
AcDb2dVertex
 10
33.75
 20
4.13398
  0
VERTEX
  5
2D0
100
AcDbEntity
  8
Solder_Pad_1_Top
100
AcDbVertex
100
AcDb2dVertex
 10
33.75
 20
5.86603
  0
SEQEND
  5
2D1
100
AcDbEntity
  8
Solder_Pad_1_Top
  0
HATCH
  5
2D2
100
AcDbEntity
  8
Solder_Pad_1_Top
100
AcDbHatch
 10
0.0
 20
0.0
 30
0.0
210
0.0
220
0.0
230
1.0
  2
SOLID
 70
       1
 71
       1
 91
        1
 92
        1
 93
        6
 72
       1
 10
47.75
 20
10.133979999999999
 11
49.25
 21
9.2679500000000008
 72
       1
 10
49.25
 20
9.2679500000000008
 11
50.75
 21
10.133979999999999
 72
       1
 10
50.75
 20
10.133979999999999
 11
50.75
 21
11.86603
 72
       1
 10
50.75
 20
11.86603
 11
49.25
 21
12.732049999999999
 72
       1
 10
49.25
 20
12.732049999999999
 11
47.75
 21
11.86603
 72
       1
 10
47.75
 20
11.86603
 11
47.75
 21
10.133979999999999
 97
        0
 75
       0
 76
       2
 98
        1
 10
0.0
 20
0.0
  0
POLYLINE
  5
2D3
100
AcDbEntity
  8
Solder_Pad_1_Top
100
AcDb2dPolyline
 66
       1
 10
0.0
 20
0.0
 30
0.0
 70
       1
  0
VERTEX
  5
2D4
100
AcDbEntity
  8
Solder_Pad_1_Top
100
AcDbVertex
100
AcDb2dVertex
 10
47.75
 20
11.86603
  0
VERTEX
  5
2D5
100
AcDbEntity
  8
Solder_Pad_1_Top
100
AcDbVertex
100
AcDb2dVertex
 10
47.75
 20
11.86603
  0
VERTEX
  5
2D6
100
AcDbEntity
  8
Solder_Pad_1_Top
100
AcDbVertex
100
AcDb2dVertex
 10
49.25
 20
12.73205
  0
VERTEX
  5
2D7
100
AcDbEntity
  8
Solder_Pad_1_Top
100
AcDbVertex
100
AcDb2dVertex
 10
50.75
 20
11.86603
  0
VERTEX
  5
2D8
100
AcDbEntity
  8
Solder_Pad_1_Top
100
AcDbVertex
100
AcDb2dVertex
 10
50.75
 20
10.13398
  0
VERTEX
  5
2D9
100
AcDbEntity
  8
Solder_Pad_1_Top
100
AcDbVertex
100
AcDb2dVertex
 10
49.25
 20
9.26795
  0
VERTEX
  5
2DA
100
AcDbEntity
  8
Solder_Pad_1_Top
100
AcDbVertex
100
AcDb2dVertex
 10
47.75
 20
10.13398
  0
VERTEX
  5
2DB
100
AcDbEntity
  8
Solder_Pad_1_Top
100
AcDbVertex
100
AcDb2dVertex
 10
47.75
 20
11.86603
  0
SEQEND
  5
2DC
100
AcDbEntity
  8
Solder_Pad_1_Top
  0
HATCH
  5
2DD
100
AcDbEntity
  8
Solder_Pad_1_Top
100
AcDbHatch
 10
0.0
 20
0.0
 30
0.0
210
0.0
220
0.0
230
1.0
  2
SOLID
 70
       1
 71
       1
 91
        1
 92
        1
 93
        6
 72
       1
 10
44.25
 20
10.133979999999999
 11
45.75
 21
9.2679500000000008
 72
       1
 10
45.75
 20
9.2679500000000008
 11
47.25
 21
10.133979999999999
 72
       1
 10
47.25
 20
10.133979999999999
 11
47.25
 21
11.86603
 72
       1
 10
47.25
 20
11.86603
 11
45.75
 21
12.732049999999999
 72
       1
 10
45.75
 20
12.732049999999999
 11
44.25
 21
11.86603
 72
       1
 10
44.25
 20
11.86603
 11
44.25
 21
10.133979999999999
 97
        0
 75
       0
 76
       2
 98
        1
 10
0.0
 20
0.0
  0
POLYLINE
  5
2DE
100
AcDbEntity
  8
Solder_Pad_1_Top
100
AcDb2dPolyline
 66
       1
 10
0.0
 20
0.0
 30
0.0
 70
       1
  0
VERTEX
  5
2DF
100
AcDbEntity
  8
Solder_Pad_1_Top
100
AcDbVertex
100
AcDb2dVertex
 10
44.25
 20
11.86603
  0
VERTEX
  5
2E0
100
AcDbEntity
  8
Solder_Pad_1_Top
100
AcDbVertex
100
AcDb2dVertex
 10
44.25
 20
11.86603
  0
VERTEX
  5
2E1
100
AcDbEntity
  8
Solder_Pad_1_Top
100
AcDbVertex
100
AcDb2dVertex
 10
45.75
 20
12.73205
  0
VERTEX
  5
2E2
100
AcDbEntity
  8
Solder_Pad_1_Top
100
AcDbVertex
100
AcDb2dVertex
 10
47.25
 20
11.86603
  0
VERTEX
  5
2E3
100
AcDbEntity
  8
Solder_Pad_1_Top
100
AcDbVertex
100
AcDb2dVertex
 10
47.25
 20
10.13398
  0
VERTEX
  5
2E4
100
AcDbEntity
  8
Solder_Pad_1_Top
100
AcDbVertex
100
AcDb2dVertex
 10
45.75
 20
9.26795
  0
VERTEX
  5
2E5
100
AcDbEntity
  8
Solder_Pad_1_Top
100
AcDbVertex
100
AcDb2dVertex
 10
44.25
 20
10.13398
  0
VERTEX
  5
2E6
100
AcDbEntity
  8
Solder_Pad_1_Top
100
AcDbVertex
100
AcDb2dVertex
 10
44.25
 20
11.86603
  0
SEQEND
  5
2E7
100
AcDbEntity
  8
Solder_Pad_1_Top
  0
HATCH
  5
2E8
100
AcDbEntity
  8
Solder_Pad_1_Top
100
AcDbHatch
 10
0.0
 20
0.0
 30
0.0
210
0.0
220
0.0
230
1.0
  2
SOLID
 70
       1
 71
       1
 91
        1
 92
        1
 93
        6
 72
       1
 10
40.75
 20
10.133979999999999
 11
42.25
 21
9.2679500000000008
 72
       1
 10
42.25
 20
9.2679500000000008
 11
43.75
 21
10.133979999999999
 72
       1
 10
43.75
 20
10.133979999999999
 11
43.75
 21
11.86603
 72
       1
 10
43.75
 20
11.86603
 11
42.25
 21
12.732049999999999
 72
       1
 10
42.25
 20
12.732049999999999
 11
40.75
 21
11.86603
 72
       1
 10
40.75
 20
11.86603
 11
40.75
 21
10.133979999999999
 97
        0
 75
       0
 76
       2
 98
        1
 10
0.0
 20
0.0
  0
POLYLINE
  5
2E9
100
AcDbEntity
  8
Solder_Pad_1_Top
100
AcDb2dPolyline
 66
       1
 10
0.0
 20
0.0
 30
0.0
 70
       1
  0
VERTEX
  5
2EA
100
AcDbEntity
  8
Solder_Pad_1_Top
100
AcDbVertex
100
AcDb2dVertex
 10
40.75
 20
11.86603
  0
VERTEX
  5
2EB
100
AcDbEntity
  8
Solder_Pad_1_Top
100
AcDbVertex
100
AcDb2dVertex
 10
40.75
 20
11.86603
  0
VERTEX
  5
2EC
100
AcDbEntity
  8
Solder_Pad_1_Top
100
AcDbVertex
100
AcDb2dVertex
 10
42.25
 20
12.73205
  0
VERTEX
  5
2ED
100
AcDbEntity
  8
Solder_Pad_1_Top
100
AcDbVertex
100
AcDb2dVertex
 10
43.75
 20
11.86603
  0
VERTEX
  5
2EE
100
AcDbEntity
  8
Solder_Pad_1_Top
100
AcDbVertex
100
AcDb2dVertex
 10
43.75
 20
10.13398
  0
VERTEX
  5
2EF
100
AcDbEntity
  8
Solder_Pad_1_Top
100
AcDbVertex
100
AcDb2dVertex
 10
42.25
 20
9.26795
  0
VERTEX
  5
2F0
100
AcDbEntity
  8
Solder_Pad_1_Top
100
AcDbVertex
100
AcDb2dVertex
 10
40.75
 20
10.13398
  0
VERTEX
  5
2F1
100
AcDbEntity
  8
Solder_Pad_1_Top
100
AcDbVertex
100
AcDb2dVertex
 10
40.75
 20
11.86603
  0
SEQEND
  5
2F2
100
AcDbEntity
  8
Solder_Pad_1_Top
  0
HATCH
  5
2F3
100
AcDbEntity
  8
Solder_Pad_1_Top
100
AcDbHatch
 10
0.0
 20
0.0
 30
0.0
210
0.0
220
0.0
230
1.0
  2
SOLID
 70
       1
 71
       1
 91
        1
 92
        1
 93
        6
 72
       1
 10
37.25
 20
10.133979999999999
 11
38.75
 21
9.2679500000000008
 72
       1
 10
38.75
 20
9.2679500000000008
 11
40.25
 21
10.133979999999999
 72
       1
 10
40.25
 20
10.133979999999999
 11
40.25
 21
11.86603
 72
       1
 10
40.25
 20
11.86603
 11
38.75
 21
12.732049999999999
 72
       1
 10
38.75
 20
12.732049999999999
 11
37.25
 21
11.86603
 72
       1
 10
37.25
 20
11.86603
 11
37.25
 21
10.133979999999999
 97
        0
 75
       0
 76
       2
 98
        1
 10
0.0
 20
0.0
  0
POLYLINE
  5
2F4
100
AcDbEntity
  8
Solder_Pad_1_Top
100
AcDb2dPolyline
 66
       1
 10
0.0
 20
0.0
 30
0.0
 70
       1
  0
VERTEX
  5
2F5
100
AcDbEntity
  8
Solder_Pad_1_Top
100
AcDbVertex
100
AcDb2dVertex
 10
37.25
 20
11.86603
  0
VERTEX
  5
2F6
100
AcDbEntity
  8
Solder_Pad_1_Top
100
AcDbVertex
100
AcDb2dVertex
 10
37.25
 20
11.86603
  0
VERTEX
  5
2F7
100
AcDbEntity
  8
Solder_Pad_1_Top
100
AcDbVertex
100
AcDb2dVertex
 10
38.75
 20
12.73205
  0
VERTEX
  5
2F8
100
AcDbEntity
  8
Solder_Pad_1_Top
100
AcDbVertex
100
AcDb2dVertex
 10
40.25
 20
11.86603
  0
VERTEX
  5
2F9
100
AcDbEntity
  8
Solder_Pad_1_Top
100
AcDbVertex
100
AcDb2dVertex
 10
40.25
 20
10.13398
  0
VERTEX
  5
2FA
100
AcDbEntity
  8
Solder_Pad_1_Top
100
AcDbVertex
100
AcDb2dVertex
 10
38.75
 20
9.26795
  0
VERTEX
  5
2FB
100
AcDbEntity
  8
Solder_Pad_1_Top
100
AcDbVertex
100
AcDb2dVertex
 10
37.25
 20
10.13398
  0
VERTEX
  5
2FC
100
AcDbEntity
  8
Solder_Pad_1_Top
100
AcDbVertex
100
AcDb2dVertex
 10
37.25
 20
11.86603
  0
SEQEND
  5
2FD
100
AcDbEntity
  8
Solder_Pad_1_Top
  0
HATCH
  5
2FE
100
AcDbEntity
  8
Solder_Pad_1_Top
100
AcDbHatch
 10
0.0
 20
0.0
 30
0.0
210
0.0
220
0.0
230
1.0
  2
SOLID
 70
       1
 71
       1
 91
        1
 92
        1
 93
        6
 72
       1
 10
33.75
 20
10.133979999999999
 11
35.25
 21
9.2679500000000008
 72
       1
 10
35.25
 20
9.2679500000000008
 11
36.75
 21
10.133979999999999
 72
       1
 10
36.75
 20
10.133979999999999
 11
36.75
 21
11.86603
 72
       1
 10
36.75
 20
11.86603
 11
35.25
 21
12.732049999999999
 72
       1
 10
35.25
 20
12.732049999999999
 11
33.75
 21
11.86603
 72
       1
 10
33.75
 20
11.86603
 11
33.75
 21
10.133979999999999
 97
        0
 75
       0
 76
       2
 98
        1
 10
0.0
 20
0.0
  0
POLYLINE
  5
2FF
100
AcDbEntity
  8
Solder_Pad_1_Top
100
AcDb2dPolyline
 66
       1
 10
0.0
 20
0.0
 30
0.0
 70
       1
  0
VERTEX
  5
300
100
AcDbEntity
  8
Solder_Pad_1_Top
100
AcDbVertex
100
AcDb2dVertex
 10
33.75
 20
11.86603
  0
VERTEX
  5
301
100
AcDbEntity
  8
Solder_Pad_1_Top
100
AcDbVertex
100
AcDb2dVertex
 10
33.75
 20
11.86603
  0
VERTEX
  5
302
100
AcDbEntity
  8
Solder_Pad_1_Top
100
AcDbVertex
100
AcDb2dVertex
 10
35.25
 20
12.73205
  0
VERTEX
  5
303
100
AcDbEntity
  8
Solder_Pad_1_Top
100
AcDbVertex
100
AcDb2dVertex
 10
36.75
 20
11.86603
  0
VERTEX
  5
304
100
AcDbEntity
  8
Solder_Pad_1_Top
100
AcDbVertex
100
AcDb2dVertex
 10
36.75
 20
10.13398
  0
VERTEX
  5
305
100
AcDbEntity
  8
Solder_Pad_1_Top
100
AcDbVertex
100
AcDb2dVertex
 10
35.25
 20
9.26795
  0
VERTEX
  5
306
100
AcDbEntity
  8
Solder_Pad_1_Top
100
AcDbVertex
100
AcDb2dVertex
 10
33.75
 20
10.13398
  0
VERTEX
  5
307
100
AcDbEntity
  8
Solder_Pad_1_Top
100
AcDbVertex
100
AcDb2dVertex
 10
33.75
 20
11.86603
  0
SEQEND
  5
308
100
AcDbEntity
  8
Solder_Pad_1_Top
  0
HATCH
  5
309
100
AcDbEntity
  8
Solder_Pad_1_Top
100
AcDbHatch
 10
0.0
 20
0.0
 30
0.0
210
0.0
220
0.0
230
1.0
  2
SOLID
 70
       1
 71
       1
 91
        1
 92
        1
 93
        6
 72
       1
 10
53.0
 20
13.133979999999999
 11
54.5
 21
12.267950000000001
 72
       1
 10
54.5
 20
12.267950000000001
 11
56.0
 21
13.133979999999999
 72
       1
 10
56.0
 20
13.133979999999999
 11
56.0
 21
14.86603
 72
       1
 10
56.0
 20
14.86603
 11
54.5
 21
15.732049999999999
 72
       1
 10
54.5
 20
15.732049999999999
 11
53.0
 21
14.86603
 72
       1
 10
53.0
 20
14.86603
 11
53.0
 21
13.133979999999999
 97
        0
 75
       0
 76
       2
 98
        1
 10
0.0
 20
0.0
  0
POLYLINE
  5
30A
100
AcDbEntity
  8
Solder_Pad_1_Top
100
AcDb2dPolyline
 66
       1
 10
0.0
 20
0.0
 30
0.0
 70
       1
  0
VERTEX
  5
30B
100
AcDbEntity
  8
Solder_Pad_1_Top
100
AcDbVertex
100
AcDb2dVertex
 10
53.0
 20
14.86603
  0
VERTEX
  5
30C
100
AcDbEntity
  8
Solder_Pad_1_Top
100
AcDbVertex
100
AcDb2dVertex
 10
53.0
 20
14.86603
  0
VERTEX
  5
30D
100
AcDbEntity
  8
Solder_Pad_1_Top
100
AcDbVertex
100
AcDb2dVertex
 10
54.5
 20
15.73205
  0
VERTEX
  5
30E
100
AcDbEntity
  8
Solder_Pad_1_Top
100
AcDbVertex
100
AcDb2dVertex
 10
56.0
 20
14.86603
  0
VERTEX
  5
30F
100
AcDbEntity
  8
Solder_Pad_1_Top
100
AcDbVertex
100
AcDb2dVertex
 10
56.0
 20
13.13398
  0
VERTEX
  5
310
100
AcDbEntity
  8
Solder_Pad_1_Top
100
AcDbVertex
100
AcDb2dVertex
 10
54.5
 20
12.26795
  0
VERTEX
  5
311
100
AcDbEntity
  8
Solder_Pad_1_Top
100
AcDbVertex
100
AcDb2dVertex
 10
53.0
 20
13.13398
  0
VERTEX
  5
312
100
AcDbEntity
  8
Solder_Pad_1_Top
100
AcDbVertex
100
AcDb2dVertex
 10
53.0
 20
14.86603
  0
SEQEND
  5
313
100
AcDbEntity
  8
Solder_Pad_1_Top
  0
HATCH
  5
314
100
AcDbEntity
  8
Solder_Pad_1_Top
100
AcDbHatch
 10
0.0
 20
0.0
 30
0.0
210
0.0
220
0.0
230
1.0
  2
SOLID
 70
       1
 71
       1
 91
        1
 92
        1
 93
        6
 72
       1
 10
49.5
 20
13.133979999999999
 11
51.0
 21
12.267950000000001
 72
       1
 10
51.0
 20
12.267950000000001
 11
52.5
 21
13.133979999999999
 72
       1
 10
52.5
 20
13.133979999999999
 11
52.5
 21
14.86603
 72
       1
 10
52.5
 20
14.86603
 11
51.0
 21
15.732049999999999
 72
       1
 10
51.0
 20
15.732049999999999
 11
49.5
 21
14.86603
 72
       1
 10
49.5
 20
14.86603
 11
49.5
 21
13.133979999999999
 97
        0
 75
       0
 76
       2
 98
        1
 10
0.0
 20
0.0
  0
POLYLINE
  5
315
100
AcDbEntity
  8
Solder_Pad_1_Top
100
AcDb2dPolyline
 66
       1
 10
0.0
 20
0.0
 30
0.0
 70
       1
  0
VERTEX
  5
316
100
AcDbEntity
  8
Solder_Pad_1_Top
100
AcDbVertex
100
AcDb2dVertex
 10
49.5
 20
14.86603
  0
VERTEX
  5
317
100
AcDbEntity
  8
Solder_Pad_1_Top
100
AcDbVertex
100
AcDb2dVertex
 10
49.5
 20
14.86603
  0
VERTEX
  5
318
100
AcDbEntity
  8
Solder_Pad_1_Top
100
AcDbVertex
100
AcDb2dVertex
 10
51.0
 20
15.73205
  0
VERTEX
  5
319
100
AcDbEntity
  8
Solder_Pad_1_Top
100
AcDbVertex
100
AcDb2dVertex
 10
52.5
 20
14.86603
  0
VERTEX
  5
31A
100
AcDbEntity
  8
Solder_Pad_1_Top
100
AcDbVertex
100
AcDb2dVertex
 10
52.5
 20
13.13398
  0
VERTEX
  5
31B
100
AcDbEntity
  8
Solder_Pad_1_Top
100
AcDbVertex
100
AcDb2dVertex
 10
51.0
 20
12.26795
  0
VERTEX
  5
31C
100
AcDbEntity
  8
Solder_Pad_1_Top
100
AcDbVertex
100
AcDb2dVertex
 10
49.5
 20
13.13398
  0
VERTEX
  5
31D
100
AcDbEntity
  8
Solder_Pad_1_Top
100
AcDbVertex
100
AcDb2dVertex
 10
49.5
 20
14.86603
  0
SEQEND
  5
31E
100
AcDbEntity
  8
Solder_Pad_1_Top
  0
HATCH
  5
31F
100
AcDbEntity
  8
Solder_Pad_1_Top
100
AcDbHatch
 10
0.0
 20
0.0
 30
0.0
210
0.0
220
0.0
230
1.0
  2
SOLID
 70
       1
 71
       1
 91
        1
 92
        1
 93
        6
 72
       1
 10
46.0
 20
13.133979999999999
 11
47.5
 21
12.267950000000001
 72
       1
 10
47.5
 20
12.267950000000001
 11
49.0
 21
13.133979999999999
 72
       1
 10
49.0
 20
13.133979999999999
 11
49.0
 21
14.86603
 72
       1
 10
49.0
 20
14.86603
 11
47.5
 21
15.732049999999999
 72
       1
 10
47.5
 20
15.732049999999999
 11
46.0
 21
14.86603
 72
       1
 10
46.0
 20
14.86603
 11
46.0
 21
13.133979999999999
 97
        0
 75
       0
 76
       2
 98
        1
 10
0.0
 20
0.0
  0
POLYLINE
  5
320
100
AcDbEntity
  8
Solder_Pad_1_Top
100
AcDb2dPolyline
 66
       1
 10
0.0
 20
0.0
 30
0.0
 70
       1
  0
VERTEX
  5
321
100
AcDbEntity
  8
Solder_Pad_1_Top
100
AcDbVertex
100
AcDb2dVertex
 10
46.0
 20
14.86603
  0
VERTEX
  5
322
100
AcDbEntity
  8
Solder_Pad_1_Top
100
AcDbVertex
100
AcDb2dVertex
 10
46.0
 20
14.86603
  0
VERTEX
  5
323
100
AcDbEntity
  8
Solder_Pad_1_Top
100
AcDbVertex
100
AcDb2dVertex
 10
47.5
 20
15.73205
  0
VERTEX
  5
324
100
AcDbEntity
  8
Solder_Pad_1_Top
100
AcDbVertex
100
AcDb2dVertex
 10
49.0
 20
14.86603
  0
VERTEX
  5
325
100
AcDbEntity
  8
Solder_Pad_1_Top
100
AcDbVertex
100
AcDb2dVertex
 10
49.0
 20
13.13398
  0
VERTEX
  5
326
100
AcDbEntity
  8
Solder_Pad_1_Top
100
AcDbVertex
100
AcDb2dVertex
 10
47.5
 20
12.26795
  0
VERTEX
  5
327
100
AcDbEntity
  8
Solder_Pad_1_Top
100
AcDbVertex
100
AcDb2dVertex
 10
46.0
 20
13.13398
  0
VERTEX
  5
328
100
AcDbEntity
  8
Solder_Pad_1_Top
100
AcDbVertex
100
AcDb2dVertex
 10
46.0
 20
14.86603
  0
SEQEND
  5
329
100
AcDbEntity
  8
Solder_Pad_1_Top
  0
HATCH
  5
32A
100
AcDbEntity
  8
Solder_Pad_1_Top
100
AcDbHatch
 10
0.0
 20
0.0
 30
0.0
210
0.0
220
0.0
230
1.0
  2
SOLID
 70
       1
 71
       1
 91
        1
 92
        1
 93
        6
 72
       1
 10
42.5
 20
13.133979999999999
 11
44.0
 21
12.267950000000001
 72
       1
 10
44.0
 20
12.267950000000001
 11
45.5
 21
13.133979999999999
 72
       1
 10
45.5
 20
13.133979999999999
 11
45.5
 21
14.86603
 72
       1
 10
45.5
 20
14.86603
 11
44.0
 21
15.732049999999999
 72
       1
 10
44.0
 20
15.732049999999999
 11
42.5
 21
14.86603
 72
       1
 10
42.5
 20
14.86603
 11
42.5
 21
13.133979999999999
 97
        0
 75
       0
 76
       2
 98
        1
 10
0.0
 20
0.0
  0
POLYLINE
  5
32B
100
AcDbEntity
  8
Solder_Pad_1_Top
100
AcDb2dPolyline
 66
       1
 10
0.0
 20
0.0
 30
0.0
 70
       1
  0
VERTEX
  5
32C
100
AcDbEntity
  8
Solder_Pad_1_Top
100
AcDbVertex
100
AcDb2dVertex
 10
42.5
 20
14.86603
  0
VERTEX
  5
32D
100
AcDbEntity
  8
Solder_Pad_1_Top
100
AcDbVertex
100
AcDb2dVertex
 10
42.5
 20
14.86603
  0
VERTEX
  5
32E
100
AcDbEntity
  8
Solder_Pad_1_Top
100
AcDbVertex
100
AcDb2dVertex
 10
44.0
 20
15.73205
  0
VERTEX
  5
32F
100
AcDbEntity
  8
Solder_Pad_1_Top
100
AcDbVertex
100
AcDb2dVertex
 10
45.5
 20
14.86603
  0
VERTEX
  5
330
100
AcDbEntity
  8
Solder_Pad_1_Top
100
AcDbVertex
100
AcDb2dVertex
 10
45.5
 20
13.13398
  0
VERTEX
  5
331
100
AcDbEntity
  8
Solder_Pad_1_Top
100
AcDbVertex
100
AcDb2dVertex
 10
44.0
 20
12.26795
  0
VERTEX
  5
332
100
AcDbEntity
  8
Solder_Pad_1_Top
100
AcDbVertex
100
AcDb2dVertex
 10
42.5
 20
13.13398
  0
VERTEX
  5
333
100
AcDbEntity
  8
Solder_Pad_1_Top
100
AcDbVertex
100
AcDb2dVertex
 10
42.5
 20
14.86603
  0
SEQEND
  5
334
100
AcDbEntity
  8
Solder_Pad_1_Top
  0
HATCH
  5
335
100
AcDbEntity
  8
Solder_Pad_1_Top
100
AcDbHatch
 10
0.0
 20
0.0
 30
0.0
210
0.0
220
0.0
230
1.0
  2
SOLID
 70
       1
 71
       1
 91
        1
 92
        1
 93
        6
 72
       1
 10
39.0
 20
13.133979999999999
 11
40.5
 21
12.267950000000001
 72
       1
 10
40.5
 20
12.267950000000001
 11
42.0
 21
13.133979999999999
 72
       1
 10
42.0
 20
13.133979999999999
 11
42.0
 21
14.86603
 72
       1
 10
42.0
 20
14.86603
 11
40.5
 21
15.732049999999999
 72
       1
 10
40.5
 20
15.732049999999999
 11
39.0
 21
14.86603
 72
       1
 10
39.0
 20
14.86603
 11
39.0
 21
13.133979999999999
 97
        0
 75
       0
 76
       2
 98
        1
 10
0.0
 20
0.0
  0
POLYLINE
  5
336
100
AcDbEntity
  8
Solder_Pad_1_Top
100
AcDb2dPolyline
 66
       1
 10
0.0
 20
0.0
 30
0.0
 70
       1
  0
VERTEX
  5
337
100
AcDbEntity
  8
Solder_Pad_1_Top
100
AcDbVertex
100
AcDb2dVertex
 10
39.0
 20
14.86603
  0
VERTEX
  5
338
100
AcDbEntity
  8
Solder_Pad_1_Top
100
AcDbVertex
100
AcDb2dVertex
 10
39.0
 20
14.86603
  0
VERTEX
  5
339
100
AcDbEntity
  8
Solder_Pad_1_Top
100
AcDbVertex
100
AcDb2dVertex
 10
40.5
 20
15.73205
  0
VERTEX
  5
33A
100
AcDbEntity
  8
Solder_Pad_1_Top
100
AcDbVertex
100
AcDb2dVertex
 10
42.0
 20
14.86603
  0
VERTEX
  5
33B
100
AcDbEntity
  8
Solder_Pad_1_Top
100
AcDbVertex
100
AcDb2dVertex
 10
42.0
 20
13.13398
  0
VERTEX
  5
33C
100
AcDbEntity
  8
Solder_Pad_1_Top
100
AcDbVertex
100
AcDb2dVertex
 10
40.5
 20
12.26795
  0
VERTEX
  5
33D
100
AcDbEntity
  8
Solder_Pad_1_Top
100
AcDbVertex
100
AcDb2dVertex
 10
39.0
 20
13.13398
  0
VERTEX
  5
33E
100
AcDbEntity
  8
Solder_Pad_1_Top
100
AcDbVertex
100
AcDb2dVertex
 10
39.0
 20
14.86603
  0
SEQEND
  5
33F
100
AcDbEntity
  8
Solder_Pad_1_Top
  0
HATCH
  5
340
100
AcDbEntity
  8
Solder_Pad_1_Top
100
AcDbHatch
 10
0.0
 20
0.0
 30
0.0
210
0.0
220
0.0
230
1.0
  2
SOLID
 70
       1
 71
       1
 91
        1
 92
        1
 93
        6
 72
       1
 10
35.5
 20
13.133979999999999
 11
37.0
 21
12.267950000000001
 72
       1
 10
37.0
 20
12.267950000000001
 11
38.5
 21
13.133979999999999
 72
       1
 10
38.5
 20
13.133979999999999
 11
38.5
 21
14.86603
 72
       1
 10
38.5
 20
14.86603
 11
37.0
 21
15.732049999999999
 72
       1
 10
37.0
 20
15.732049999999999
 11
35.5
 21
14.86603
 72
       1
 10
35.5
 20
14.86603
 11
35.5
 21
13.133979999999999
 97
        0
 75
       0
 76
       2
 98
        1
 10
0.0
 20
0.0
  0
POLYLINE
  5
341
100
AcDbEntity
  8
Solder_Pad_1_Top
100
AcDb2dPolyline
 66
       1
 10
0.0
 20
0.0
 30
0.0
 70
       1
  0
VERTEX
  5
342
100
AcDbEntity
  8
Solder_Pad_1_Top
100
AcDbVertex
100
AcDb2dVertex
 10
35.5
 20
14.86603
  0
VERTEX
  5
343
100
AcDbEntity
  8
Solder_Pad_1_Top
100
AcDbVertex
100
AcDb2dVertex
 10
35.5
 20
14.86603
  0
VERTEX
  5
344
100
AcDbEntity
  8
Solder_Pad_1_Top
100
AcDbVertex
100
AcDb2dVertex
 10
37.0
 20
15.73205
  0
VERTEX
  5
345
100
AcDbEntity
  8
Solder_Pad_1_Top
100
AcDbVertex
100
AcDb2dVertex
 10
38.5
 20
14.86603
  0
VERTEX
  5
346
100
AcDbEntity
  8
Solder_Pad_1_Top
100
AcDbVertex
100
AcDb2dVertex
 10
38.5
 20
13.13398
  0
VERTEX
  5
347
100
AcDbEntity
  8
Solder_Pad_1_Top
100
AcDbVertex
100
AcDb2dVertex
 10
37.0
 20
12.26795
  0
VERTEX
  5
348
100
AcDbEntity
  8
Solder_Pad_1_Top
100
AcDbVertex
100
AcDb2dVertex
 10
35.5
 20
13.13398
  0
VERTEX
  5
349
100
AcDbEntity
  8
Solder_Pad_1_Top
100
AcDbVertex
100
AcDb2dVertex
 10
35.5
 20
14.86603
  0
SEQEND
  5
34A
100
AcDbEntity
  8
Solder_Pad_1_Top
  0
HATCH
  5
34B
100
AcDbEntity
  8
Solder_Pad_1_Top
100
AcDbHatch
 10
0.0
 20
0.0
 30
0.0
210
0.0
220
0.0
230
1.0
  2
SOLID
 70
       1
 71
       1
 91
        1
 92
        1
 93
        6
 72
       1
 10
32.0
 20
13.133979999999999
 11
33.5
 21
12.267950000000001
 72
       1
 10
33.5
 20
12.267950000000001
 11
35.0
 21
13.133979999999999
 72
       1
 10
35.0
 20
13.133979999999999
 11
35.0
 21
14.86603
 72
       1
 10
35.0
 20
14.86603
 11
33.5
 21
15.732049999999999
 72
       1
 10
33.5
 20
15.732049999999999
 11
32.0
 21
14.86603
 72
       1
 10
32.0
 20
14.86603
 11
32.0
 21
13.133979999999999
 97
        0
 75
       0
 76
       2
 98
        1
 10
0.0
 20
0.0
  0
POLYLINE
  5
34C
100
AcDbEntity
  8
Solder_Pad_1_Top
100
AcDb2dPolyline
 66
       1
 10
0.0
 20
0.0
 30
0.0
 70
       1
  0
VERTEX
  5
34D
100
AcDbEntity
  8
Solder_Pad_1_Top
100
AcDbVertex
100
AcDb2dVertex
 10
32.0
 20
14.86603
  0
VERTEX
  5
34E
100
AcDbEntity
  8
Solder_Pad_1_Top
100
AcDbVertex
100
AcDb2dVertex
 10
32.0
 20
14.86603
  0
VERTEX
  5
34F
100
AcDbEntity
  8
Solder_Pad_1_Top
100
AcDbVertex
100
AcDb2dVertex
 10
33.5
 20
15.73205
  0
VERTEX
  5
350
100
AcDbEntity
  8
Solder_Pad_1_Top
100
AcDbVertex
100
AcDb2dVertex
 10
35.0
 20
14.86603
  0
VERTEX
  5
351
100
AcDbEntity
  8
Solder_Pad_1_Top
100
AcDbVertex
100
AcDb2dVertex
 10
35.0
 20
13.13398
  0
VERTEX
  5
352
100
AcDbEntity
  8
Solder_Pad_1_Top
100
AcDbVertex
100
AcDb2dVertex
 10
33.5
 20
12.26795
  0
VERTEX
  5
353
100
AcDbEntity
  8
Solder_Pad_1_Top
100
AcDbVertex
100
AcDb2dVertex
 10
32.0
 20
13.13398
  0
VERTEX
  5
354
100
AcDbEntity
  8
Solder_Pad_1_Top
100
AcDbVertex
100
AcDb2dVertex
 10
32.0
 20
14.86603
  0
SEQEND
  5
355
100
AcDbEntity
  8
Solder_Pad_1_Top
  0
HATCH
  5
356
100
AcDbEntity
  8
Solder_Pad_1_Top
100
AcDbHatch
 10
0.0
 20
0.0
 30
0.0
210
0.0
220
0.0
230
1.0
  2
SOLID
 70
       1
 71
       1
 91
        1
 92
        1
 93
        6
 72
       1
 10
44.25
 20
16.133980000000001
 11
45.75
 21
15.267950000000001
 72
       1
 10
45.75
 20
15.267950000000001
 11
47.25
 21
16.133980000000001
 72
       1
 10
47.25
 20
16.133980000000001
 11
47.25
 21
17.866029999999999
 72
       1
 10
47.25
 20
17.866029999999999
 11
45.75
 21
18.732050000000001
 72
       1
 10
45.75
 20
18.732050000000001
 11
44.25
 21
17.866029999999999
 72
       1
 10
44.25
 20
17.866029999999999
 11
44.25
 21
16.133980000000001
 97
        0
 75
       0
 76
       2
 98
        1
 10
0.0
 20
0.0
  0
POLYLINE
  5
357
100
AcDbEntity
  8
Solder_Pad_1_Top
100
AcDb2dPolyline
 66
       1
 10
0.0
 20
0.0
 30
0.0
 70
       1
  0
VERTEX
  5
358
100
AcDbEntity
  8
Solder_Pad_1_Top
100
AcDbVertex
100
AcDb2dVertex
 10
44.25
 20
17.86603
  0
VERTEX
  5
359
100
AcDbEntity
  8
Solder_Pad_1_Top
100
AcDbVertex
100
AcDb2dVertex
 10
44.25
 20
17.86603
  0
VERTEX
  5
35A
100
AcDbEntity
  8
Solder_Pad_1_Top
100
AcDbVertex
100
AcDb2dVertex
 10
45.75
 20
18.73205
  0
VERTEX
  5
35B
100
AcDbEntity
  8
Solder_Pad_1_Top
100
AcDbVertex
100
AcDb2dVertex
 10
47.25
 20
17.86603
  0
VERTEX
  5
35C
100
AcDbEntity
  8
Solder_Pad_1_Top
100
AcDbVertex
100
AcDb2dVertex
 10
47.25
 20
16.13398
  0
VERTEX
  5
35D
100
AcDbEntity
  8
Solder_Pad_1_Top
100
AcDbVertex
100
AcDb2dVertex
 10
45.75
 20
15.26795
  0
VERTEX
  5
35E
100
AcDbEntity
  8
Solder_Pad_1_Top
100
AcDbVertex
100
AcDb2dVertex
 10
44.25
 20
16.13398
  0
VERTEX
  5
35F
100
AcDbEntity
  8
Solder_Pad_1_Top
100
AcDbVertex
100
AcDb2dVertex
 10
44.25
 20
17.86603
  0
SEQEND
  5
360
100
AcDbEntity
  8
Solder_Pad_1_Top
  0
HATCH
  5
361
100
AcDbEntity
  8
Solder_Pad_1_Top
100
AcDbHatch
 10
0.0
 20
0.0
 30
0.0
210
0.0
220
0.0
230
1.0
  2
SOLID
 70
       1
 71
       1
 91
        1
 92
        1
 93
        6
 72
       1
 10
40.75
 20
16.133980000000001
 11
42.25
 21
15.267950000000001
 72
       1
 10
42.25
 20
15.267950000000001
 11
43.75
 21
16.133980000000001
 72
       1
 10
43.75
 20
16.133980000000001
 11
43.75
 21
17.866029999999999
 72
       1
 10
43.75
 20
17.866029999999999
 11
42.25
 21
18.732050000000001
 72
       1
 10
42.25
 20
18.732050000000001
 11
40.75
 21
17.866029999999999
 72
       1
 10
40.75
 20
17.866029999999999
 11
40.75
 21
16.133980000000001
 97
        0
 75
       0
 76
       2
 98
        1
 10
0.0
 20
0.0
  0
POLYLINE
  5
362
100
AcDbEntity
  8
Solder_Pad_1_Top
100
AcDb2dPolyline
 66
       1
 10
0.0
 20
0.0
 30
0.0
 70
       1
  0
VERTEX
  5
363
100
AcDbEntity
  8
Solder_Pad_1_Top
100
AcDbVertex
100
AcDb2dVertex
 10
40.75
 20
17.86603
  0
VERTEX
  5
364
100
AcDbEntity
  8
Solder_Pad_1_Top
100
AcDbVertex
100
AcDb2dVertex
 10
40.75
 20
17.86603
  0
VERTEX
  5
365
100
AcDbEntity
  8
Solder_Pad_1_Top
100
AcDbVertex
100
AcDb2dVertex
 10
42.25
 20
18.73205
  0
VERTEX
  5
366
100
AcDbEntity
  8
Solder_Pad_1_Top
100
AcDbVertex
100
AcDb2dVertex
 10
43.75
 20
17.86603
  0
VERTEX
  5
367
100
AcDbEntity
  8
Solder_Pad_1_Top
100
AcDbVertex
100
AcDb2dVertex
 10
43.75
 20
16.13398
  0
VERTEX
  5
368
100
AcDbEntity
  8
Solder_Pad_1_Top
100
AcDbVertex
100
AcDb2dVertex
 10
42.25
 20
15.26795
  0
VERTEX
  5
369
100
AcDbEntity
  8
Solder_Pad_1_Top
100
AcDbVertex
100
AcDb2dVertex
 10
40.75
 20
16.13398
  0
VERTEX
  5
36A
100
AcDbEntity
  8
Solder_Pad_1_Top
100
AcDbVertex
100
AcDb2dVertex
 10
40.75
 20
17.86603
  0
SEQEND
  5
36B
100
AcDbEntity
  8
Solder_Pad_1_Top
  0
HATCH
  5
36C
100
AcDbEntity
  8
Solder_Pad_1_Top
100
AcDbHatch
 10
0.0
 20
0.0
 30
0.0
210
0.0
220
0.0
230
1.0
  2
SOLID
 70
       1
 71
       1
 91
        1
 92
        1
 93
        6
 72
       1
 10
37.25
 20
16.133980000000001
 11
38.75
 21
15.267950000000001
 72
       1
 10
38.75
 20
15.267950000000001
 11
40.25
 21
16.133980000000001
 72
       1
 10
40.25
 20
16.133980000000001
 11
40.25
 21
17.866029999999999
 72
       1
 10
40.25
 20
17.866029999999999
 11
38.75
 21
18.732050000000001
 72
       1
 10
38.75
 20
18.732050000000001
 11
37.25
 21
17.866029999999999
 72
       1
 10
37.25
 20
17.866029999999999
 11
37.25
 21
16.133980000000001
 97
        0
 75
       0
 76
       2
 98
        1
 10
0.0
 20
0.0
  0
POLYLINE
  5
36D
100
AcDbEntity
  8
Solder_Pad_1_Top
100
AcDb2dPolyline
 66
       1
 10
0.0
 20
0.0
 30
0.0
 70
       1
  0
VERTEX
  5
36E
100
AcDbEntity
  8
Solder_Pad_1_Top
100
AcDbVertex
100
AcDb2dVertex
 10
37.25
 20
17.86603
  0
VERTEX
  5
36F
100
AcDbEntity
  8
Solder_Pad_1_Top
100
AcDbVertex
100
AcDb2dVertex
 10
37.25
 20
17.86603
  0
VERTEX
  5
370
100
AcDbEntity
  8
Solder_Pad_1_Top
100
AcDbVertex
100
AcDb2dVertex
 10
38.75
 20
18.73205
  0
VERTEX
  5
371
100
AcDbEntity
  8
Solder_Pad_1_Top
100
AcDbVertex
100
AcDb2dVertex
 10
40.25
 20
17.86603
  0
VERTEX
  5
372
100
AcDbEntity
  8
Solder_Pad_1_Top
100
AcDbVertex
100
AcDb2dVertex
 10
40.25
 20
16.13398
  0
VERTEX
  5
373
100
AcDbEntity
  8
Solder_Pad_1_Top
100
AcDbVertex
100
AcDb2dVertex
 10
38.75
 20
15.26795
  0
VERTEX
  5
374
100
AcDbEntity
  8
Solder_Pad_1_Top
100
AcDbVertex
100
AcDb2dVertex
 10
37.25
 20
16.13398
  0
VERTEX
  5
375
100
AcDbEntity
  8
Solder_Pad_1_Top
100
AcDbVertex
100
AcDb2dVertex
 10
37.25
 20
17.86603
  0
SEQEND
  5
376
100
AcDbEntity
  8
Solder_Pad_1_Top
  0
HATCH
  5
377
100
AcDbEntity
  8
Solder_Pad_1_Top
100
AcDbHatch
 10
0.0
 20
0.0
 30
0.0
210
0.0
220
0.0
230
1.0
  2
SOLID
 70
       1
 71
       1
 91
        1
 92
        1
 93
        6
 72
       1
 10
33.75
 20
16.133980000000001
 11
35.25
 21
15.267950000000001
 72
       1
 10
35.25
 20
15.267950000000001
 11
36.75
 21
16.133980000000001
 72
       1
 10
36.75
 20
16.133980000000001
 11
36.75
 21
17.866029999999999
 72
       1
 10
36.75
 20
17.866029999999999
 11
35.25
 21
18.732050000000001
 72
       1
 10
35.25
 20
18.732050000000001
 11
33.75
 21
17.866029999999999
 72
       1
 10
33.75
 20
17.866029999999999
 11
33.75
 21
16.133980000000001
 97
        0
 75
       0
 76
       2
 98
        1
 10
0.0
 20
0.0
  0
POLYLINE
  5
378
100
AcDbEntity
  8
Solder_Pad_1_Top
100
AcDb2dPolyline
 66
       1
 10
0.0
 20
0.0
 30
0.0
 70
       1
  0
VERTEX
  5
379
100
AcDbEntity
  8
Solder_Pad_1_Top
100
AcDbVertex
100
AcDb2dVertex
 10
33.75
 20
17.86603
  0
VERTEX
  5
37A
100
AcDbEntity
  8
Solder_Pad_1_Top
100
AcDbVertex
100
AcDb2dVertex
 10
33.75
 20
17.86603
  0
VERTEX
  5
37B
100
AcDbEntity
  8
Solder_Pad_1_Top
100
AcDbVertex
100
AcDb2dVertex
 10
35.25
 20
18.73205
  0
VERTEX
  5
37C
100
AcDbEntity
  8
Solder_Pad_1_Top
100
AcDbVertex
100
AcDb2dVertex
 10
36.75
 20
17.86603
  0
VERTEX
  5
37D
100
AcDbEntity
  8
Solder_Pad_1_Top
100
AcDbVertex
100
AcDb2dVertex
 10
36.75
 20
16.13398
  0
VERTEX
  5
37E
100
AcDbEntity
  8
Solder_Pad_1_Top
100
AcDbVertex
100
AcDb2dVertex
 10
35.25
 20
15.26795
  0
VERTEX
  5
37F
100
AcDbEntity
  8
Solder_Pad_1_Top
100
AcDbVertex
100
AcDb2dVertex
 10
33.75
 20
16.13398
  0
VERTEX
  5
380
100
AcDbEntity
  8
Solder_Pad_1_Top
100
AcDbVertex
100
AcDb2dVertex
 10
33.75
 20
17.86603
  0
SEQEND
  5
381
100
AcDbEntity
  8
Solder_Pad_1_Top
  0
HATCH
  5
382
100
AcDbEntity
  8
Solder_Pad_1_Top
100
AcDbHatch
 10
0.0
 20
0.0
 30
0.0
210
0.0
220
0.0
230
1.0
  2
SOLID
 70
       1
 71
       1
 91
        1
 92
        1
 93
        6
 72
       1
 10
5.75
 20
4.1339800000000002
 11
7.25
 21
3.2679499999999999
 72
       1
 10
7.25
 20
3.2679499999999999
 11
8.75
 21
4.1339800000000002
 72
       1
 10
8.75
 20
4.1339800000000002
 11
8.75
 21
5.8660300000000003
 72
       1
 10
8.75
 20
5.8660300000000003
 11
7.25
 21
6.7320500000000001
 72
       1
 10
7.25
 20
6.7320500000000001
 11
5.75
 21
5.8660300000000003
 72
       1
 10
5.75
 20
5.8660300000000003
 11
5.75
 21
4.1339800000000002
 97
        0
 75
       0
 76
       2
 98
        1
 10
0.0
 20
0.0
  0
POLYLINE
  5
383
100
AcDbEntity
  8
Solder_Pad_1_Top
100
AcDb2dPolyline
 66
       1
 10
0.0
 20
0.0
 30
0.0
 70
       1
  0
VERTEX
  5
384
100
AcDbEntity
  8
Solder_Pad_1_Top
100
AcDbVertex
100
AcDb2dVertex
 10
5.75
 20
5.86603
  0
VERTEX
  5
385
100
AcDbEntity
  8
Solder_Pad_1_Top
100
AcDbVertex
100
AcDb2dVertex
 10
5.75
 20
5.86603
  0
VERTEX
  5
386
100
AcDbEntity
  8
Solder_Pad_1_Top
100
AcDbVertex
100
AcDb2dVertex
 10
7.25
 20
6.73205
  0
VERTEX
  5
387
100
AcDbEntity
  8
Solder_Pad_1_Top
100
AcDbVertex
100
AcDb2dVertex
 10
8.75
 20
5.86603
  0
VERTEX
  5
388
100
AcDbEntity
  8
Solder_Pad_1_Top
100
AcDbVertex
100
AcDb2dVertex
 10
8.75
 20
4.13398
  0
VERTEX
  5
389
100
AcDbEntity
  8
Solder_Pad_1_Top
100
AcDbVertex
100
AcDb2dVertex
 10
7.25
 20
3.26795
  0
VERTEX
  5
38A
100
AcDbEntity
  8
Solder_Pad_1_Top
100
AcDbVertex
100
AcDb2dVertex
 10
5.75
 20
4.13398
  0
VERTEX
  5
38B
100
AcDbEntity
  8
Solder_Pad_1_Top
100
AcDbVertex
100
AcDb2dVertex
 10
5.75
 20
5.86603
  0
SEQEND
  5
38C
100
AcDbEntity
  8
Solder_Pad_1_Top
  0
HATCH
  5
38D
100
AcDbEntity
  8
Solder_Pad_1_Top
100
AcDbHatch
 10
0.0
 20
0.0
 30
0.0
210
0.0
220
0.0
230
1.0
  2
SOLID
 70
       1
 71
       1
 91
        1
 92
        1
 93
        6
 72
       1
 10
9.25
 20
4.1339800000000002
 11
10.75
 21
3.2679499999999999
 72
       1
 10
10.75
 20
3.2679499999999999
 11
12.25
 21
4.1339800000000002
 72
       1
 10
12.25
 20
4.1339800000000002
 11
12.25
 21
5.8660300000000003
 72
       1
 10
12.25
 20
5.8660300000000003
 11
10.75
 21
6.7320500000000001
 72
       1
 10
10.75
 20
6.7320500000000001
 11
9.25
 21
5.8660300000000003
 72
       1
 10
9.25
 20
5.8660300000000003
 11
9.25
 21
4.1339800000000002
 97
        0
 75
       0
 76
       2
 98
        1
 10
0.0
 20
0.0
  0
POLYLINE
  5
38E
100
AcDbEntity
  8
Solder_Pad_1_Top
100
AcDb2dPolyline
 66
       1
 10
0.0
 20
0.0
 30
0.0
 70
       1
  0
VERTEX
  5
38F
100
AcDbEntity
  8
Solder_Pad_1_Top
100
AcDbVertex
100
AcDb2dVertex
 10
9.25
 20
5.86603
  0
VERTEX
  5
390
100
AcDbEntity
  8
Solder_Pad_1_Top
100
AcDbVertex
100
AcDb2dVertex
 10
9.25
 20
5.86603
  0
VERTEX
  5
391
100
AcDbEntity
  8
Solder_Pad_1_Top
100
AcDbVertex
100
AcDb2dVertex
 10
10.75
 20
6.73205
  0
VERTEX
  5
392
100
AcDbEntity
  8
Solder_Pad_1_Top
100
AcDbVertex
100
AcDb2dVertex
 10
12.25
 20
5.86603
  0
VERTEX
  5
393
100
AcDbEntity
  8
Solder_Pad_1_Top
100
AcDbVertex
100
AcDb2dVertex
 10
12.25
 20
4.13398
  0
VERTEX
  5
394
100
AcDbEntity
  8
Solder_Pad_1_Top
100
AcDbVertex
100
AcDb2dVertex
 10
10.75
 20
3.26795
  0
VERTEX
  5
395
100
AcDbEntity
  8
Solder_Pad_1_Top
100
AcDbVertex
100
AcDb2dVertex
 10
9.25
 20
4.13398
  0
VERTEX
  5
396
100
AcDbEntity
  8
Solder_Pad_1_Top
100
AcDbVertex
100
AcDb2dVertex
 10
9.25
 20
5.86603
  0
SEQEND
  5
397
100
AcDbEntity
  8
Solder_Pad_1_Top
  0
HATCH
  5
398
100
AcDbEntity
  8
Solder_Pad_1_Top
100
AcDbHatch
 10
0.0
 20
0.0
 30
0.0
210
0.0
220
0.0
230
1.0
  2
SOLID
 70
       1
 71
       1
 91
        1
 92
        1
 93
        6
 72
       1
 10
12.75
 20
4.1339800000000002
 11
14.25
 21
3.2679499999999999
 72
       1
 10
14.25
 20
3.2679499999999999
 11
15.75
 21
4.1339800000000002
 72
       1
 10
15.75
 20
4.1339800000000002
 11
15.75
 21
5.8660300000000003
 72
       1
 10
15.75
 20
5.8660300000000003
 11
14.25
 21
6.7320500000000001
 72
       1
 10
14.25
 20
6.7320500000000001
 11
12.75
 21
5.8660300000000003
 72
       1
 10
12.75
 20
5.8660300000000003
 11
12.75
 21
4.1339800000000002
 97
        0
 75
       0
 76
       2
 98
        1
 10
0.0
 20
0.0
  0
POLYLINE
  5
399
100
AcDbEntity
  8
Solder_Pad_1_Top
100
AcDb2dPolyline
 66
       1
 10
0.0
 20
0.0
 30
0.0
 70
       1
  0
VERTEX
  5
39A
100
AcDbEntity
  8
Solder_Pad_1_Top
100
AcDbVertex
100
AcDb2dVertex
 10
12.75
 20
5.86603
  0
VERTEX
  5
39B
100
AcDbEntity
  8
Solder_Pad_1_Top
100
AcDbVertex
100
AcDb2dVertex
 10
12.75
 20
5.86603
  0
VERTEX
  5
39C
100
AcDbEntity
  8
Solder_Pad_1_Top
100
AcDbVertex
100
AcDb2dVertex
 10
14.25
 20
6.73205
  0
VERTEX
  5
39D
100
AcDbEntity
  8
Solder_Pad_1_Top
100
AcDbVertex
100
AcDb2dVertex
 10
15.75
 20
5.86603
  0
VERTEX
  5
39E
100
AcDbEntity
  8
Solder_Pad_1_Top
100
AcDbVertex
100
AcDb2dVertex
 10
15.75
 20
4.13398
  0
VERTEX
  5
39F
100
AcDbEntity
  8
Solder_Pad_1_Top
100
AcDbVertex
100
AcDb2dVertex
 10
14.25
 20
3.26795
  0
VERTEX
  5
3A0
100
AcDbEntity
  8
Solder_Pad_1_Top
100
AcDbVertex
100
AcDb2dVertex
 10
12.75
 20
4.13398
  0
VERTEX
  5
3A1
100
AcDbEntity
  8
Solder_Pad_1_Top
100
AcDbVertex
100
AcDb2dVertex
 10
12.75
 20
5.86603
  0
SEQEND
  5
3A2
100
AcDbEntity
  8
Solder_Pad_1_Top
  0
HATCH
  5
3A3
100
AcDbEntity
  8
Solder_Pad_1_Top
100
AcDbHatch
 10
0.0
 20
0.0
 30
0.0
210
0.0
220
0.0
230
1.0
  2
SOLID
 70
       1
 71
       1
 91
        1
 92
        1
 93
        6
 72
       1
 10
16.25
 20
4.1339800000000002
 11
17.75
 21
3.2679499999999999
 72
       1
 10
17.75
 20
3.2679499999999999
 11
19.25
 21
4.1339800000000002
 72
       1
 10
19.25
 20
4.1339800000000002
 11
19.25
 21
5.8660300000000003
 72
       1
 10
19.25
 20
5.8660300000000003
 11
17.75
 21
6.7320500000000001
 72
       1
 10
17.75
 20
6.7320500000000001
 11
16.25
 21
5.8660300000000003
 72
       1
 10
16.25
 20
5.8660300000000003
 11
16.25
 21
4.1339800000000002
 97
        0
 75
       0
 76
       2
 98
        1
 10
0.0
 20
0.0
  0
POLYLINE
  5
3A4
100
AcDbEntity
  8
Solder_Pad_1_Top
100
AcDb2dPolyline
 66
       1
 10
0.0
 20
0.0
 30
0.0
 70
       1
  0
VERTEX
  5
3A5
100
AcDbEntity
  8
Solder_Pad_1_Top
100
AcDbVertex
100
AcDb2dVertex
 10
16.25
 20
5.86603
  0
VERTEX
  5
3A6
100
AcDbEntity
  8
Solder_Pad_1_Top
100
AcDbVertex
100
AcDb2dVertex
 10
16.25
 20
5.86603
  0
VERTEX
  5
3A7
100
AcDbEntity
  8
Solder_Pad_1_Top
100
AcDbVertex
100
AcDb2dVertex
 10
17.75
 20
6.73205
  0
VERTEX
  5
3A8
100
AcDbEntity
  8
Solder_Pad_1_Top
100
AcDbVertex
100
AcDb2dVertex
 10
19.25
 20
5.86603
  0
VERTEX
  5
3A9
100
AcDbEntity
  8
Solder_Pad_1_Top
100
AcDbVertex
100
AcDb2dVertex
 10
19.25
 20
4.13398
  0
VERTEX
  5
3AA
100
AcDbEntity
  8
Solder_Pad_1_Top
100
AcDbVertex
100
AcDb2dVertex
 10
17.75
 20
3.26795
  0
VERTEX
  5
3AB
100
AcDbEntity
  8
Solder_Pad_1_Top
100
AcDbVertex
100
AcDb2dVertex
 10
16.25
 20
4.13398
  0
VERTEX
  5
3AC
100
AcDbEntity
  8
Solder_Pad_1_Top
100
AcDbVertex
100
AcDb2dVertex
 10
16.25
 20
5.86603
  0
SEQEND
  5
3AD
100
AcDbEntity
  8
Solder_Pad_1_Top
  0
HATCH
  5
3AE
100
AcDbEntity
  8
Solder_Pad_1_Top
100
AcDbHatch
 10
0.0
 20
0.0
 30
0.0
210
0.0
220
0.0
230
1.0
  2
SOLID
 70
       1
 71
       1
 91
        1
 92
        1
 93
        6
 72
       1
 10
19.75
 20
4.1339800000000002
 11
21.25
 21
3.2679499999999999
 72
       1
 10
21.25
 20
3.2679499999999999
 11
22.75
 21
4.1339800000000002
 72
       1
 10
22.75
 20
4.1339800000000002
 11
22.75
 21
5.8660300000000003
 72
       1
 10
22.75
 20
5.8660300000000003
 11
21.25
 21
6.7320500000000001
 72
       1
 10
21.25
 20
6.7320500000000001
 11
19.75
 21
5.8660300000000003
 72
       1
 10
19.75
 20
5.8660300000000003
 11
19.75
 21
4.1339800000000002
 97
        0
 75
       0
 76
       2
 98
        1
 10
0.0
 20
0.0
  0
POLYLINE
  5
3AF
100
AcDbEntity
  8
Solder_Pad_1_Top
100
AcDb2dPolyline
 66
       1
 10
0.0
 20
0.0
 30
0.0
 70
       1
  0
VERTEX
  5
3B0
100
AcDbEntity
  8
Solder_Pad_1_Top
100
AcDbVertex
100
AcDb2dVertex
 10
19.75
 20
5.86603
  0
VERTEX
  5
3B1
100
AcDbEntity
  8
Solder_Pad_1_Top
100
AcDbVertex
100
AcDb2dVertex
 10
19.75
 20
5.86603
  0
VERTEX
  5
3B2
100
AcDbEntity
  8
Solder_Pad_1_Top
100
AcDbVertex
100
AcDb2dVertex
 10
21.25
 20
6.73205
  0
VERTEX
  5
3B3
100
AcDbEntity
  8
Solder_Pad_1_Top
100
AcDbVertex
100
AcDb2dVertex
 10
22.75
 20
5.86603
  0
VERTEX
  5
3B4
100
AcDbEntity
  8
Solder_Pad_1_Top
100
AcDbVertex
100
AcDb2dVertex
 10
22.75
 20
4.13398
  0
VERTEX
  5
3B5
100
AcDbEntity
  8
Solder_Pad_1_Top
100
AcDbVertex
100
AcDb2dVertex
 10
21.25
 20
3.26795
  0
VERTEX
  5
3B6
100
AcDbEntity
  8
Solder_Pad_1_Top
100
AcDbVertex
100
AcDb2dVertex
 10
19.75
 20
4.13398
  0
VERTEX
  5
3B7
100
AcDbEntity
  8
Solder_Pad_1_Top
100
AcDbVertex
100
AcDb2dVertex
 10
19.75
 20
5.86603
  0
SEQEND
  5
3B8
100
AcDbEntity
  8
Solder_Pad_1_Top
  0
HATCH
  5
3B9
100
AcDbEntity
  8
Solder_Pad_1_Top
100
AcDbHatch
 10
0.0
 20
0.0
 30
0.0
210
0.0
220
0.0
230
1.0
  2
SOLID
 70
       1
 71
       1
 91
        1
 92
        1
 93
        6
 72
       1
 10
23.25
 20
4.1339800000000002
 11
24.75
 21
3.2679499999999999
 72
       1
 10
24.75
 20
3.2679499999999999
 11
26.25
 21
4.1339800000000002
 72
       1
 10
26.25
 20
4.1339800000000002
 11
26.25
 21
5.8660300000000003
 72
       1
 10
26.25
 20
5.8660300000000003
 11
24.75
 21
6.7320500000000001
 72
       1
 10
24.75
 20
6.7320500000000001
 11
23.25
 21
5.8660300000000003
 72
       1
 10
23.25
 20
5.8660300000000003
 11
23.25
 21
4.1339800000000002
 97
        0
 75
       0
 76
       2
 98
        1
 10
0.0
 20
0.0
  0
POLYLINE
  5
3BA
100
AcDbEntity
  8
Solder_Pad_1_Top
100
AcDb2dPolyline
 66
       1
 10
0.0
 20
0.0
 30
0.0
 70
       1
  0
VERTEX
  5
3BB
100
AcDbEntity
  8
Solder_Pad_1_Top
100
AcDbVertex
100
AcDb2dVertex
 10
23.25
 20
5.86603
  0
VERTEX
  5
3BC
100
AcDbEntity
  8
Solder_Pad_1_Top
100
AcDbVertex
100
AcDb2dVertex
 10
23.25
 20
5.86603
  0
VERTEX
  5
3BD
100
AcDbEntity
  8
Solder_Pad_1_Top
100
AcDbVertex
100
AcDb2dVertex
 10
24.75
 20
6.73205
  0
VERTEX
  5
3BE
100
AcDbEntity
  8
Solder_Pad_1_Top
100
AcDbVertex
100
AcDb2dVertex
 10
26.25
 20
5.86603
  0
VERTEX
  5
3BF
100
AcDbEntity
  8
Solder_Pad_1_Top
100
AcDbVertex
100
AcDb2dVertex
 10
26.25
 20
4.13398
  0
VERTEX
  5
3C0
100
AcDbEntity
  8
Solder_Pad_1_Top
100
AcDbVertex
100
AcDb2dVertex
 10
24.75
 20
3.26795
  0
VERTEX
  5
3C1
100
AcDbEntity
  8
Solder_Pad_1_Top
100
AcDbVertex
100
AcDb2dVertex
 10
23.25
 20
4.13398
  0
VERTEX
  5
3C2
100
AcDbEntity
  8
Solder_Pad_1_Top
100
AcDbVertex
100
AcDb2dVertex
 10
23.25
 20
5.86603
  0
SEQEND
  5
3C3
100
AcDbEntity
  8
Solder_Pad_1_Top
  0
HATCH
  5
3C4
100
AcDbEntity
  8
Solder_Pad_1_Top
100
AcDbHatch
 10
0.0
 20
0.0
 30
0.0
210
0.0
220
0.0
230
1.0
  2
SOLID
 70
       1
 71
       1
 91
        1
 92
        1
 93
        6
 72
       1
 10
26.75
 20
4.1339800000000002
 11
28.25
 21
3.2679499999999999
 72
       1
 10
28.25
 20
3.2679499999999999
 11
29.75
 21
4.1339800000000002
 72
       1
 10
29.75
 20
4.1339800000000002
 11
29.75
 21
5.8660300000000003
 72
       1
 10
29.75
 20
5.8660300000000003
 11
28.25
 21
6.7320500000000001
 72
       1
 10
28.25
 20
6.7320500000000001
 11
26.75
 21
5.8660300000000003
 72
       1
 10
26.75
 20
5.8660300000000003
 11
26.75
 21
4.1339800000000002
 97
        0
 75
       0
 76
       2
 98
        1
 10
0.0
 20
0.0
  0
POLYLINE
  5
3C5
100
AcDbEntity
  8
Solder_Pad_1_Top
100
AcDb2dPolyline
 66
       1
 10
0.0
 20
0.0
 30
0.0
 70
       1
  0
VERTEX
  5
3C6
100
AcDbEntity
  8
Solder_Pad_1_Top
100
AcDbVertex
100
AcDb2dVertex
 10
26.75
 20
5.86603
  0
VERTEX
  5
3C7
100
AcDbEntity
  8
Solder_Pad_1_Top
100
AcDbVertex
100
AcDb2dVertex
 10
26.75
 20
5.86603
  0
VERTEX
  5
3C8
100
AcDbEntity
  8
Solder_Pad_1_Top
100
AcDbVertex
100
AcDb2dVertex
 10
28.25
 20
6.73205
  0
VERTEX
  5
3C9
100
AcDbEntity
  8
Solder_Pad_1_Top
100
AcDbVertex
100
AcDb2dVertex
 10
29.75
 20
5.86603
  0
VERTEX
  5
3CA
100
AcDbEntity
  8
Solder_Pad_1_Top
100
AcDbVertex
100
AcDb2dVertex
 10
29.75
 20
4.13398
  0
VERTEX
  5
3CB
100
AcDbEntity
  8
Solder_Pad_1_Top
100
AcDbVertex
100
AcDb2dVertex
 10
28.25
 20
3.26795
  0
VERTEX
  5
3CC
100
AcDbEntity
  8
Solder_Pad_1_Top
100
AcDbVertex
100
AcDb2dVertex
 10
26.75
 20
4.13398
  0
VERTEX
  5
3CD
100
AcDbEntity
  8
Solder_Pad_1_Top
100
AcDbVertex
100
AcDb2dVertex
 10
26.75
 20
5.86603
  0
SEQEND
  5
3CE
100
AcDbEntity
  8
Solder_Pad_1_Top
  0
HATCH
  5
3CF
100
AcDbEntity
  8
Solder_Pad_1_Top
100
AcDbHatch
 10
0.0
 20
0.0
 30
0.0
210
0.0
220
0.0
230
1.0
  2
SOLID
 70
       1
 71
       1
 91
        1
 92
        1
 93
        6
 72
       1
 10
28.5
 20
1.13398
 11
30.0
 21
0.26795
 72
       1
 10
30.0
 20
0.26795
 11
31.5
 21
1.13398
 72
       1
 10
31.5
 20
1.13398
 11
31.5
 21
2.8660299999999999
 72
       1
 10
31.5
 20
2.8660299999999999
 11
30.0
 21
3.7320500000000001
 72
       1
 10
30.0
 20
3.7320500000000001
 11
28.5
 21
2.8660299999999999
 72
       1
 10
28.5
 20
2.8660299999999999
 11
28.5
 21
1.13398
 97
        0
 75
       0
 76
       2
 98
        1
 10
0.0
 20
0.0
  0
POLYLINE
  5
3D0
100
AcDbEntity
  8
Solder_Pad_1_Top
100
AcDb2dPolyline
 66
       1
 10
0.0
 20
0.0
 30
0.0
 70
       1
  0
VERTEX
  5
3D1
100
AcDbEntity
  8
Solder_Pad_1_Top
100
AcDbVertex
100
AcDb2dVertex
 10
28.5
 20
2.86603
  0
VERTEX
  5
3D2
100
AcDbEntity
  8
Solder_Pad_1_Top
100
AcDbVertex
100
AcDb2dVertex
 10
28.5
 20
2.86603
  0
VERTEX
  5
3D3
100
AcDbEntity
  8
Solder_Pad_1_Top
100
AcDbVertex
100
AcDb2dVertex
 10
30.0
 20
3.73205
  0
VERTEX
  5
3D4
100
AcDbEntity
  8
Solder_Pad_1_Top
100
AcDbVertex
100
AcDb2dVertex
 10
31.5
 20
2.86603
  0
VERTEX
  5
3D5
100
AcDbEntity
  8
Solder_Pad_1_Top
100
AcDbVertex
100
AcDb2dVertex
 10
31.5
 20
1.13398
  0
VERTEX
  5
3D6
100
AcDbEntity
  8
Solder_Pad_1_Top
100
AcDbVertex
100
AcDb2dVertex
 10
30.0
 20
0.26795
  0
VERTEX
  5
3D7
100
AcDbEntity
  8
Solder_Pad_1_Top
100
AcDbVertex
100
AcDb2dVertex
 10
28.5
 20
1.13398
  0
VERTEX
  5
3D8
100
AcDbEntity
  8
Solder_Pad_1_Top
100
AcDbVertex
100
AcDb2dVertex
 10
28.5
 20
2.86603
  0
SEQEND
  5
3D9
100
AcDbEntity
  8
Solder_Pad_1_Top
  0
HATCH
  5
3DA
100
AcDbEntity
  8
Solder_Pad_1_Top
100
AcDbHatch
 10
0.0
 20
0.0
 30
0.0
210
0.0
220
0.0
230
1.0
  2
SOLID
 70
       1
 71
       1
 91
        1
 92
        1
 93
        6
 72
       1
 10
25.0
 20
1.13398
 11
26.5
 21
0.26795
 72
       1
 10
26.5
 20
0.26795
 11
28.0
 21
1.13398
 72
       1
 10
28.0
 20
1.13398
 11
28.0
 21
2.8660299999999999
 72
       1
 10
28.0
 20
2.8660299999999999
 11
26.5
 21
3.7320500000000001
 72
       1
 10
26.5
 20
3.7320500000000001
 11
25.0
 21
2.8660299999999999
 72
       1
 10
25.0
 20
2.8660299999999999
 11
25.0
 21
1.13398
 97
        0
 75
       0
 76
       2
 98
        1
 10
0.0
 20
0.0
  0
POLYLINE
  5
3DB
100
AcDbEntity
  8
Solder_Pad_1_Top
100
AcDb2dPolyline
 66
       1
 10
0.0
 20
0.0
 30
0.0
 70
       1
  0
VERTEX
  5
3DC
100
AcDbEntity
  8
Solder_Pad_1_Top
100
AcDbVertex
100
AcDb2dVertex
 10
25.0
 20
2.86603
  0
VERTEX
  5
3DD
100
AcDbEntity
  8
Solder_Pad_1_Top
100
AcDbVertex
100
AcDb2dVertex
 10
25.0
 20
2.86603
  0
VERTEX
  5
3DE
100
AcDbEntity
  8
Solder_Pad_1_Top
100
AcDbVertex
100
AcDb2dVertex
 10
26.5
 20
3.73205
  0
VERTEX
  5
3DF
100
AcDbEntity
  8
Solder_Pad_1_Top
100
AcDbVertex
100
AcDb2dVertex
 10
28.0
 20
2.86603
  0
VERTEX
  5
3E0
100
AcDbEntity
  8
Solder_Pad_1_Top
100
AcDbVertex
100
AcDb2dVertex
 10
28.0
 20
1.13398
  0
VERTEX
  5
3E1
100
AcDbEntity
  8
Solder_Pad_1_Top
100
AcDbVertex
100
AcDb2dVertex
 10
26.5
 20
0.26795
  0
VERTEX
  5
3E2
100
AcDbEntity
  8
Solder_Pad_1_Top
100
AcDbVertex
100
AcDb2dVertex
 10
25.0
 20
1.13398
  0
VERTEX
  5
3E3
100
AcDbEntity
  8
Solder_Pad_1_Top
100
AcDbVertex
100
AcDb2dVertex
 10
25.0
 20
2.86603
  0
SEQEND
  5
3E4
100
AcDbEntity
  8
Solder_Pad_1_Top
  0
HATCH
  5
3E5
100
AcDbEntity
  8
Solder_Pad_1_Top
100
AcDbHatch
 10
0.0
 20
0.0
 30
0.0
210
0.0
220
0.0
230
1.0
  2
SOLID
 70
       1
 71
       1
 91
        1
 92
        1
 93
        6
 72
       1
 10
21.5
 20
1.13398
 11
23.0
 21
0.26795
 72
       1
 10
23.0
 20
0.26795
 11
24.5
 21
1.13398
 72
       1
 10
24.5
 20
1.13398
 11
24.5
 21
2.8660299999999999
 72
       1
 10
24.5
 20
2.8660299999999999
 11
23.0
 21
3.7320500000000001
 72
       1
 10
23.0
 20
3.7320500000000001
 11
21.5
 21
2.8660299999999999
 72
       1
 10
21.5
 20
2.8660299999999999
 11
21.5
 21
1.13398
 97
        0
 75
       0
 76
       2
 98
        1
 10
0.0
 20
0.0
  0
POLYLINE
  5
3E6
100
AcDbEntity
  8
Solder_Pad_1_Top
100
AcDb2dPolyline
 66
       1
 10
0.0
 20
0.0
 30
0.0
 70
       1
  0
VERTEX
  5
3E7
100
AcDbEntity
  8
Solder_Pad_1_Top
100
AcDbVertex
100
AcDb2dVertex
 10
21.5
 20
2.86603
  0
VERTEX
  5
3E8
100
AcDbEntity
  8
Solder_Pad_1_Top
100
AcDbVertex
100
AcDb2dVertex
 10
21.5
 20
2.86603
  0
VERTEX
  5
3E9
100
AcDbEntity
  8
Solder_Pad_1_Top
100
AcDbVertex
100
AcDb2dVertex
 10
23.0
 20
3.73205
  0
VERTEX
  5
3EA
100
AcDbEntity
  8
Solder_Pad_1_Top
100
AcDbVertex
100
AcDb2dVertex
 10
24.5
 20
2.86603
  0
VERTEX
  5
3EB
100
AcDbEntity
  8
Solder_Pad_1_Top
100
AcDbVertex
100
AcDb2dVertex
 10
24.5
 20
1.13398
  0
VERTEX
  5
3EC
100
AcDbEntity
  8
Solder_Pad_1_Top
100
AcDbVertex
100
AcDb2dVertex
 10
23.0
 20
0.26795
  0
VERTEX
  5
3ED
100
AcDbEntity
  8
Solder_Pad_1_Top
100
AcDbVertex
100
AcDb2dVertex
 10
21.5
 20
1.13398
  0
VERTEX
  5
3EE
100
AcDbEntity
  8
Solder_Pad_1_Top
100
AcDbVertex
100
AcDb2dVertex
 10
21.5
 20
2.86603
  0
SEQEND
  5
3EF
100
AcDbEntity
  8
Solder_Pad_1_Top
  0
HATCH
  5
3F0
100
AcDbEntity
  8
Solder_Pad_1_Top
100
AcDbHatch
 10
0.0
 20
0.0
 30
0.0
210
0.0
220
0.0
230
1.0
  2
SOLID
 70
       1
 71
       1
 91
        1
 92
        1
 93
        6
 72
       1
 10
18.0
 20
1.13398
 11
19.5
 21
0.26795
 72
       1
 10
19.5
 20
0.26795
 11
21.0
 21
1.13398
 72
       1
 10
21.0
 20
1.13398
 11
21.0
 21
2.8660299999999999
 72
       1
 10
21.0
 20
2.8660299999999999
 11
19.5
 21
3.7320500000000001
 72
       1
 10
19.5
 20
3.7320500000000001
 11
18.0
 21
2.8660299999999999
 72
       1
 10
18.0
 20
2.8660299999999999
 11
18.0
 21
1.13398
 97
        0
 75
       0
 76
       2
 98
        1
 10
0.0
 20
0.0
  0
POLYLINE
  5
3F1
100
AcDbEntity
  8
Solder_Pad_1_Top
100
AcDb2dPolyline
 66
       1
 10
0.0
 20
0.0
 30
0.0
 70
       1
  0
VERTEX
  5
3F2
100
AcDbEntity
  8
Solder_Pad_1_Top
100
AcDbVertex
100
AcDb2dVertex
 10
18.0
 20
2.86603
  0
VERTEX
  5
3F3
100
AcDbEntity
  8
Solder_Pad_1_Top
100
AcDbVertex
100
AcDb2dVertex
 10
18.0
 20
2.86603
  0
VERTEX
  5
3F4
100
AcDbEntity
  8
Solder_Pad_1_Top
100
AcDbVertex
100
AcDb2dVertex
 10
19.5
 20
3.73205
  0
VERTEX
  5
3F5
100
AcDbEntity
  8
Solder_Pad_1_Top
100
AcDbVertex
100
AcDb2dVertex
 10
21.0
 20
2.86603
  0
VERTEX
  5
3F6
100
AcDbEntity
  8
Solder_Pad_1_Top
100
AcDbVertex
100
AcDb2dVertex
 10
21.0
 20
1.13398
  0
VERTEX
  5
3F7
100
AcDbEntity
  8
Solder_Pad_1_Top
100
AcDbVertex
100
AcDb2dVertex
 10
19.5
 20
0.26795
  0
VERTEX
  5
3F8
100
AcDbEntity
  8
Solder_Pad_1_Top
100
AcDbVertex
100
AcDb2dVertex
 10
18.0
 20
1.13398
  0
VERTEX
  5
3F9
100
AcDbEntity
  8
Solder_Pad_1_Top
100
AcDbVertex
100
AcDb2dVertex
 10
18.0
 20
2.86603
  0
SEQEND
  5
3FA
100
AcDbEntity
  8
Solder_Pad_1_Top
  0
HATCH
  5
3FB
100
AcDbEntity
  8
Solder_Pad_1_Top
100
AcDbHatch
 10
0.0
 20
0.0
 30
0.0
210
0.0
220
0.0
230
1.0
  2
SOLID
 70
       1
 71
       1
 91
        1
 92
        1
 93
        6
 72
       1
 10
14.5
 20
1.13398
 11
16.0
 21
0.26795
 72
       1
 10
16.0
 20
0.26795
 11
17.5
 21
1.13398
 72
       1
 10
17.5
 20
1.13398
 11
17.5
 21
2.8660299999999999
 72
       1
 10
17.5
 20
2.8660299999999999
 11
16.0
 21
3.7320500000000001
 72
       1
 10
16.0
 20
3.7320500000000001
 11
14.5
 21
2.8660299999999999
 72
       1
 10
14.5
 20
2.8660299999999999
 11
14.5
 21
1.13398
 97
        0
 75
       0
 76
       2
 98
        1
 10
0.0
 20
0.0
  0
POLYLINE
  5
3FC
100
AcDbEntity
  8
Solder_Pad_1_Top
100
AcDb2dPolyline
 66
       1
 10
0.0
 20
0.0
 30
0.0
 70
       1
  0
VERTEX
  5
3FD
100
AcDbEntity
  8
Solder_Pad_1_Top
100
AcDbVertex
100
AcDb2dVertex
 10
14.5
 20
2.86603
  0
VERTEX
  5
3FE
100
AcDbEntity
  8
Solder_Pad_1_Top
100
AcDbVertex
100
AcDb2dVertex
 10
14.5
 20
2.86603
  0
VERTEX
  5
3FF
100
AcDbEntity
  8
Solder_Pad_1_Top
100
AcDbVertex
100
AcDb2dVertex
 10
16.0
 20
3.73205
  0
VERTEX
  5
400
100
AcDbEntity
  8
Solder_Pad_1_Top
100
AcDbVertex
100
AcDb2dVertex
 10
17.5
 20
2.86603
  0
VERTEX
  5
401
100
AcDbEntity
  8
Solder_Pad_1_Top
100
AcDbVertex
100
AcDb2dVertex
 10
17.5
 20
1.13398
  0
VERTEX
  5
402
100
AcDbEntity
  8
Solder_Pad_1_Top
100
AcDbVertex
100
AcDb2dVertex
 10
16.0
 20
0.26795
  0
VERTEX
  5
403
100
AcDbEntity
  8
Solder_Pad_1_Top
100
AcDbVertex
100
AcDb2dVertex
 10
14.5
 20
1.13398
  0
VERTEX
  5
404
100
AcDbEntity
  8
Solder_Pad_1_Top
100
AcDbVertex
100
AcDb2dVertex
 10
14.5
 20
2.86603
  0
SEQEND
  5
405
100
AcDbEntity
  8
Solder_Pad_1_Top
  0
HATCH
  5
406
100
AcDbEntity
  8
Solder_Pad_1_Top
100
AcDbHatch
 10
0.0
 20
0.0
 30
0.0
210
0.0
220
0.0
230
1.0
  2
SOLID
 70
       1
 71
       1
 91
        1
 92
        1
 93
        6
 72
       1
 10
7.5
 20
1.13398
 11
9.0
 21
0.26795
 72
       1
 10
9.0
 20
0.26795
 11
10.5
 21
1.13398
 72
       1
 10
10.5
 20
1.13398
 11
10.5
 21
2.8660299999999999
 72
       1
 10
10.5
 20
2.8660299999999999
 11
9.0
 21
3.7320500000000001
 72
       1
 10
9.0
 20
3.7320500000000001
 11
7.5
 21
2.8660299999999999
 72
       1
 10
7.5
 20
2.8660299999999999
 11
7.5
 21
1.13398
 97
        0
 75
       0
 76
       2
 98
        1
 10
0.0
 20
0.0
  0
POLYLINE
  5
407
100
AcDbEntity
  8
Solder_Pad_1_Top
100
AcDb2dPolyline
 66
       1
 10
0.0
 20
0.0
 30
0.0
 70
       1
  0
VERTEX
  5
408
100
AcDbEntity
  8
Solder_Pad_1_Top
100
AcDbVertex
100
AcDb2dVertex
 10
7.5
 20
2.86603
  0
VERTEX
  5
409
100
AcDbEntity
  8
Solder_Pad_1_Top
100
AcDbVertex
100
AcDb2dVertex
 10
7.5
 20
2.86603
  0
VERTEX
  5
40A
100
AcDbEntity
  8
Solder_Pad_1_Top
100
AcDbVertex
100
AcDb2dVertex
 10
9.0
 20
3.73205
  0
VERTEX
  5
40B
100
AcDbEntity
  8
Solder_Pad_1_Top
100
AcDbVertex
100
AcDb2dVertex
 10
10.5
 20
2.86603
  0
VERTEX
  5
40C
100
AcDbEntity
  8
Solder_Pad_1_Top
100
AcDbVertex
100
AcDb2dVertex
 10
10.5
 20
1.13398
  0
VERTEX
  5
40D
100
AcDbEntity
  8
Solder_Pad_1_Top
100
AcDbVertex
100
AcDb2dVertex
 10
9.0
 20
0.26795
  0
VERTEX
  5
40E
100
AcDbEntity
  8
Solder_Pad_1_Top
100
AcDbVertex
100
AcDb2dVertex
 10
7.5
 20
1.13398
  0
VERTEX
  5
40F
100
AcDbEntity
  8
Solder_Pad_1_Top
100
AcDbVertex
100
AcDb2dVertex
 10
7.5
 20
2.86603
  0
SEQEND
  5
410
100
AcDbEntity
  8
Solder_Pad_1_Top
  0
HATCH
  5
411
100
AcDbEntity
  8
Solder_Pad_1_Top
100
AcDbHatch
 10
0.0
 20
0.0
 30
0.0
210
0.0
220
0.0
230
1.0
  2
SOLID
 70
       1
 71
       1
 91
        1
 92
        1
 93
        6
 72
       1
 10
4.0
 20
7.1339800000000002
 11
5.5
 21
6.2679499999999999
 72
       1
 10
5.5
 20
6.2679499999999999
 11
7.0
 21
7.1339800000000002
 72
       1
 10
7.0
 20
7.1339800000000002
 11
7.0
 21
8.8660300000000003
 72
       1
 10
7.0
 20
8.8660300000000003
 11
5.5
 21
9.7320499999999992
 72
       1
 10
5.5
 20
9.7320499999999992
 11
4.0
 21
8.8660300000000003
 72
       1
 10
4.0
 20
8.8660300000000003
 11
4.0
 21
7.1339800000000002
 97
        0
 75
       0
 76
       2
 98
        1
 10
0.0
 20
0.0
  0
POLYLINE
  5
412
100
AcDbEntity
  8
Solder_Pad_1_Top
100
AcDb2dPolyline
 66
       1
 10
0.0
 20
0.0
 30
0.0
 70
       1
  0
VERTEX
  5
413
100
AcDbEntity
  8
Solder_Pad_1_Top
100
AcDbVertex
100
AcDb2dVertex
 10
4.0
 20
8.86603
  0
VERTEX
  5
414
100
AcDbEntity
  8
Solder_Pad_1_Top
100
AcDbVertex
100
AcDb2dVertex
 10
4.0
 20
8.86603
  0
VERTEX
  5
415
100
AcDbEntity
  8
Solder_Pad_1_Top
100
AcDbVertex
100
AcDb2dVertex
 10
5.5
 20
9.73205
  0
VERTEX
  5
416
100
AcDbEntity
  8
Solder_Pad_1_Top
100
AcDbVertex
100
AcDb2dVertex
 10
7.0
 20
8.86603
  0
VERTEX
  5
417
100
AcDbEntity
  8
Solder_Pad_1_Top
100
AcDbVertex
100
AcDb2dVertex
 10
7.0
 20
7.13398
  0
VERTEX
  5
418
100
AcDbEntity
  8
Solder_Pad_1_Top
100
AcDbVertex
100
AcDb2dVertex
 10
5.5
 20
6.26795
  0
VERTEX
  5
419
100
AcDbEntity
  8
Solder_Pad_1_Top
100
AcDbVertex
100
AcDb2dVertex
 10
4.0
 20
7.13398
  0
VERTEX
  5
41A
100
AcDbEntity
  8
Solder_Pad_1_Top
100
AcDbVertex
100
AcDb2dVertex
 10
4.0
 20
8.86603
  0
SEQEND
  5
41B
100
AcDbEntity
  8
Solder_Pad_1_Top
  0
HATCH
  5
41C
100
AcDbEntity
  8
Solder_Pad_1_Top
100
AcDbHatch
 10
0.0
 20
0.0
 30
0.0
210
0.0
220
0.0
230
1.0
  2
SOLID
 70
       1
 71
       1
 91
        1
 92
        1
 93
        6
 72
       1
 10
11.0
 20
7.1339800000000002
 11
12.5
 21
6.2679499999999999
 72
       1
 10
12.5
 20
6.2679499999999999
 11
14.0
 21
7.1339800000000002
 72
       1
 10
14.0
 20
7.1339800000000002
 11
14.0
 21
8.8660300000000003
 72
       1
 10
14.0
 20
8.8660300000000003
 11
12.5
 21
9.7320499999999992
 72
       1
 10
12.5
 20
9.7320499999999992
 11
11.0
 21
8.8660300000000003
 72
       1
 10
11.0
 20
8.8660300000000003
 11
11.0
 21
7.1339800000000002
 97
        0
 75
       0
 76
       2
 98
        1
 10
0.0
 20
0.0
  0
POLYLINE
  5
41D
100
AcDbEntity
  8
Solder_Pad_1_Top
100
AcDb2dPolyline
 66
       1
 10
0.0
 20
0.0
 30
0.0
 70
       1
  0
VERTEX
  5
41E
100
AcDbEntity
  8
Solder_Pad_1_Top
100
AcDbVertex
100
AcDb2dVertex
 10
11.0
 20
8.86603
  0
VERTEX
  5
41F
100
AcDbEntity
  8
Solder_Pad_1_Top
100
AcDbVertex
100
AcDb2dVertex
 10
11.0
 20
8.86603
  0
VERTEX
  5
420
100
AcDbEntity
  8
Solder_Pad_1_Top
100
AcDbVertex
100
AcDb2dVertex
 10
12.5
 20
9.73205
  0
VERTEX
  5
421
100
AcDbEntity
  8
Solder_Pad_1_Top
100
AcDbVertex
100
AcDb2dVertex
 10
14.0
 20
8.86603
  0
VERTEX
  5
422
100
AcDbEntity
  8
Solder_Pad_1_Top
100
AcDbVertex
100
AcDb2dVertex
 10
14.0
 20
7.13398
  0
VERTEX
  5
423
100
AcDbEntity
  8
Solder_Pad_1_Top
100
AcDbVertex
100
AcDb2dVertex
 10
12.5
 20
6.26795
  0
VERTEX
  5
424
100
AcDbEntity
  8
Solder_Pad_1_Top
100
AcDbVertex
100
AcDb2dVertex
 10
11.0
 20
7.13398
  0
VERTEX
  5
425
100
AcDbEntity
  8
Solder_Pad_1_Top
100
AcDbVertex
100
AcDb2dVertex
 10
11.0
 20
8.86603
  0
SEQEND
  5
426
100
AcDbEntity
  8
Solder_Pad_1_Top
  0
HATCH
  5
427
100
AcDbEntity
  8
Solder_Pad_1_Top
100
AcDbHatch
 10
0.0
 20
0.0
 30
0.0
210
0.0
220
0.0
230
1.0
  2
SOLID
 70
       1
 71
       1
 91
        1
 92
        1
 93
        6
 72
       1
 10
14.5
 20
7.1339800000000002
 11
16.0
 21
6.2679499999999999
 72
       1
 10
16.0
 20
6.2679499999999999
 11
17.5
 21
7.1339800000000002
 72
       1
 10
17.5
 20
7.1339800000000002
 11
17.5
 21
8.8660300000000003
 72
       1
 10
17.5
 20
8.8660300000000003
 11
16.0
 21
9.7320499999999992
 72
       1
 10
16.0
 20
9.7320499999999992
 11
14.5
 21
8.8660300000000003
 72
       1
 10
14.5
 20
8.8660300000000003
 11
14.5
 21
7.1339800000000002
 97
        0
 75
       0
 76
       2
 98
        1
 10
0.0
 20
0.0
  0
POLYLINE
  5
428
100
AcDbEntity
  8
Solder_Pad_1_Top
100
AcDb2dPolyline
 66
       1
 10
0.0
 20
0.0
 30
0.0
 70
       1
  0
VERTEX
  5
429
100
AcDbEntity
  8
Solder_Pad_1_Top
100
AcDbVertex
100
AcDb2dVertex
 10
14.5
 20
8.86603
  0
VERTEX
  5
42A
100
AcDbEntity
  8
Solder_Pad_1_Top
100
AcDbVertex
100
AcDb2dVertex
 10
14.5
 20
8.86603
  0
VERTEX
  5
42B
100
AcDbEntity
  8
Solder_Pad_1_Top
100
AcDbVertex
100
AcDb2dVertex
 10
16.0
 20
9.73205
  0
VERTEX
  5
42C
100
AcDbEntity
  8
Solder_Pad_1_Top
100
AcDbVertex
100
AcDb2dVertex
 10
17.5
 20
8.86603
  0
VERTEX
  5
42D
100
AcDbEntity
  8
Solder_Pad_1_Top
100
AcDbVertex
100
AcDb2dVertex
 10
17.5
 20
7.13398
  0
VERTEX
  5
42E
100
AcDbEntity
  8
Solder_Pad_1_Top
100
AcDbVertex
100
AcDb2dVertex
 10
16.0
 20
6.26795
  0
VERTEX
  5
42F
100
AcDbEntity
  8
Solder_Pad_1_Top
100
AcDbVertex
100
AcDb2dVertex
 10
14.5
 20
7.13398
  0
VERTEX
  5
430
100
AcDbEntity
  8
Solder_Pad_1_Top
100
AcDbVertex
100
AcDb2dVertex
 10
14.5
 20
8.86603
  0
SEQEND
  5
431
100
AcDbEntity
  8
Solder_Pad_1_Top
  0
HATCH
  5
432
100
AcDbEntity
  8
Solder_Pad_1_Top
100
AcDbHatch
 10
0.0
 20
0.0
 30
0.0
210
0.0
220
0.0
230
1.0
  2
SOLID
 70
       1
 71
       1
 91
        1
 92
        1
 93
        6
 72
       1
 10
18.0
 20
7.1339800000000002
 11
19.5
 21
6.2679499999999999
 72
       1
 10
19.5
 20
6.2679499999999999
 11
21.0
 21
7.1339800000000002
 72
       1
 10
21.0
 20
7.1339800000000002
 11
21.0
 21
8.8660300000000003
 72
       1
 10
21.0
 20
8.8660300000000003
 11
19.5
 21
9.7320499999999992
 72
       1
 10
19.5
 20
9.7320499999999992
 11
18.0
 21
8.8660300000000003
 72
       1
 10
18.0
 20
8.8660300000000003
 11
18.0
 21
7.1339800000000002
 97
        0
 75
       0
 76
       2
 98
        1
 10
0.0
 20
0.0
  0
POLYLINE
  5
433
100
AcDbEntity
  8
Solder_Pad_1_Top
100
AcDb2dPolyline
 66
       1
 10
0.0
 20
0.0
 30
0.0
 70
       1
  0
VERTEX
  5
434
100
AcDbEntity
  8
Solder_Pad_1_Top
100
AcDbVertex
100
AcDb2dVertex
 10
18.0
 20
8.86603
  0
VERTEX
  5
435
100
AcDbEntity
  8
Solder_Pad_1_Top
100
AcDbVertex
100
AcDb2dVertex
 10
18.0
 20
8.86603
  0
VERTEX
  5
436
100
AcDbEntity
  8
Solder_Pad_1_Top
100
AcDbVertex
100
AcDb2dVertex
 10
19.5
 20
9.73205
  0
VERTEX
  5
437
100
AcDbEntity
  8
Solder_Pad_1_Top
100
AcDbVertex
100
AcDb2dVertex
 10
21.0
 20
8.86603
  0
VERTEX
  5
438
100
AcDbEntity
  8
Solder_Pad_1_Top
100
AcDbVertex
100
AcDb2dVertex
 10
21.0
 20
7.13398
  0
VERTEX
  5
439
100
AcDbEntity
  8
Solder_Pad_1_Top
100
AcDbVertex
100
AcDb2dVertex
 10
19.5
 20
6.26795
  0
VERTEX
  5
43A
100
AcDbEntity
  8
Solder_Pad_1_Top
100
AcDbVertex
100
AcDb2dVertex
 10
18.0
 20
7.13398
  0
VERTEX
  5
43B
100
AcDbEntity
  8
Solder_Pad_1_Top
100
AcDbVertex
100
AcDb2dVertex
 10
18.0
 20
8.86603
  0
SEQEND
  5
43C
100
AcDbEntity
  8
Solder_Pad_1_Top
  0
HATCH
  5
43D
100
AcDbEntity
  8
Solder_Pad_1_Top
100
AcDbHatch
 10
0.0
 20
0.0
 30
0.0
210
0.0
220
0.0
230
1.0
  2
SOLID
 70
       1
 71
       1
 91
        1
 92
        1
 93
        6
 72
       1
 10
21.5
 20
7.1339800000000002
 11
23.0
 21
6.2679499999999999
 72
       1
 10
23.0
 20
6.2679499999999999
 11
24.5
 21
7.1339800000000002
 72
       1
 10
24.5
 20
7.1339800000000002
 11
24.5
 21
8.8660300000000003
 72
       1
 10
24.5
 20
8.8660300000000003
 11
23.0
 21
9.7320499999999992
 72
       1
 10
23.0
 20
9.7320499999999992
 11
21.5
 21
8.8660300000000003
 72
       1
 10
21.5
 20
8.8660300000000003
 11
21.5
 21
7.1339800000000002
 97
        0
 75
       0
 76
       2
 98
        1
 10
0.0
 20
0.0
  0
POLYLINE
  5
43E
100
AcDbEntity
  8
Solder_Pad_1_Top
100
AcDb2dPolyline
 66
       1
 10
0.0
 20
0.0
 30
0.0
 70
       1
  0
VERTEX
  5
43F
100
AcDbEntity
  8
Solder_Pad_1_Top
100
AcDbVertex
100
AcDb2dVertex
 10
21.5
 20
8.86603
  0
VERTEX
  5
440
100
AcDbEntity
  8
Solder_Pad_1_Top
100
AcDbVertex
100
AcDb2dVertex
 10
21.5
 20
8.86603
  0
VERTEX
  5
441
100
AcDbEntity
  8
Solder_Pad_1_Top
100
AcDbVertex
100
AcDb2dVertex
 10
23.0
 20
9.73205
  0
VERTEX
  5
442
100
AcDbEntity
  8
Solder_Pad_1_Top
100
AcDbVertex
100
AcDb2dVertex
 10
24.5
 20
8.86603
  0
VERTEX
  5
443
100
AcDbEntity
  8
Solder_Pad_1_Top
100
AcDbVertex
100
AcDb2dVertex
 10
24.5
 20
7.13398
  0
VERTEX
  5
444
100
AcDbEntity
  8
Solder_Pad_1_Top
100
AcDbVertex
100
AcDb2dVertex
 10
23.0
 20
6.26795
  0
VERTEX
  5
445
100
AcDbEntity
  8
Solder_Pad_1_Top
100
AcDbVertex
100
AcDb2dVertex
 10
21.5
 20
7.13398
  0
VERTEX
  5
446
100
AcDbEntity
  8
Solder_Pad_1_Top
100
AcDbVertex
100
AcDb2dVertex
 10
21.5
 20
8.86603
  0
SEQEND
  5
447
100
AcDbEntity
  8
Solder_Pad_1_Top
  0
HATCH
  5
448
100
AcDbEntity
  8
Solder_Pad_1_Top
100
AcDbHatch
 10
0.0
 20
0.0
 30
0.0
210
0.0
220
0.0
230
1.0
  2
SOLID
 70
       1
 71
       1
 91
        1
 92
        1
 93
        6
 72
       1
 10
25.0
 20
7.1339800000000002
 11
26.5
 21
6.2679499999999999
 72
       1
 10
26.5
 20
6.2679499999999999
 11
28.0
 21
7.1339800000000002
 72
       1
 10
28.0
 20
7.1339800000000002
 11
28.0
 21
8.8660300000000003
 72
       1
 10
28.0
 20
8.8660300000000003
 11
26.5
 21
9.7320499999999992
 72
       1
 10
26.5
 20
9.7320499999999992
 11
25.0
 21
8.8660300000000003
 72
       1
 10
25.0
 20
8.8660300000000003
 11
25.0
 21
7.1339800000000002
 97
        0
 75
       0
 76
       2
 98
        1
 10
0.0
 20
0.0
  0
POLYLINE
  5
449
100
AcDbEntity
  8
Solder_Pad_1_Top
100
AcDb2dPolyline
 66
       1
 10
0.0
 20
0.0
 30
0.0
 70
       1
  0
VERTEX
  5
44A
100
AcDbEntity
  8
Solder_Pad_1_Top
100
AcDbVertex
100
AcDb2dVertex
 10
25.0
 20
8.86603
  0
VERTEX
  5
44B
100
AcDbEntity
  8
Solder_Pad_1_Top
100
AcDbVertex
100
AcDb2dVertex
 10
25.0
 20
8.86603
  0
VERTEX
  5
44C
100
AcDbEntity
  8
Solder_Pad_1_Top
100
AcDbVertex
100
AcDb2dVertex
 10
26.5
 20
9.73205
  0
VERTEX
  5
44D
100
AcDbEntity
  8
Solder_Pad_1_Top
100
AcDbVertex
100
AcDb2dVertex
 10
28.0
 20
8.86603
  0
VERTEX
  5
44E
100
AcDbEntity
  8
Solder_Pad_1_Top
100
AcDbVertex
100
AcDb2dVertex
 10
28.0
 20
7.13398
  0
VERTEX
  5
44F
100
AcDbEntity
  8
Solder_Pad_1_Top
100
AcDbVertex
100
AcDb2dVertex
 10
26.5
 20
6.26795
  0
VERTEX
  5
450
100
AcDbEntity
  8
Solder_Pad_1_Top
100
AcDbVertex
100
AcDb2dVertex
 10
25.0
 20
7.13398
  0
VERTEX
  5
451
100
AcDbEntity
  8
Solder_Pad_1_Top
100
AcDbVertex
100
AcDb2dVertex
 10
25.0
 20
8.86603
  0
SEQEND
  5
452
100
AcDbEntity
  8
Solder_Pad_1_Top
  0
HATCH
  5
453
100
AcDbEntity
  8
Solder_Pad_1_Top
100
AcDbHatch
 10
0.0
 20
0.0
 30
0.0
210
0.0
220
0.0
230
1.0
  2
SOLID
 70
       1
 71
       1
 91
        1
 92
        1
 93
        6
 72
       1
 10
28.5
 20
7.1339800000000002
 11
30.0
 21
6.2679499999999999
 72
       1
 10
30.0
 20
6.2679499999999999
 11
31.5
 21
7.1339800000000002
 72
       1
 10
31.5
 20
7.1339800000000002
 11
31.5
 21
8.8660300000000003
 72
       1
 10
31.5
 20
8.8660300000000003
 11
30.0
 21
9.7320499999999992
 72
       1
 10
30.0
 20
9.7320499999999992
 11
28.5
 21
8.8660300000000003
 72
       1
 10
28.5
 20
8.8660300000000003
 11
28.5
 21
7.1339800000000002
 97
        0
 75
       0
 76
       2
 98
        1
 10
0.0
 20
0.0
  0
POLYLINE
  5
454
100
AcDbEntity
  8
Solder_Pad_1_Top
100
AcDb2dPolyline
 66
       1
 10
0.0
 20
0.0
 30
0.0
 70
       1
  0
VERTEX
  5
455
100
AcDbEntity
  8
Solder_Pad_1_Top
100
AcDbVertex
100
AcDb2dVertex
 10
28.5
 20
8.86603
  0
VERTEX
  5
456
100
AcDbEntity
  8
Solder_Pad_1_Top
100
AcDbVertex
100
AcDb2dVertex
 10
28.5
 20
8.86603
  0
VERTEX
  5
457
100
AcDbEntity
  8
Solder_Pad_1_Top
100
AcDbVertex
100
AcDb2dVertex
 10
30.0
 20
9.73205
  0
VERTEX
  5
458
100
AcDbEntity
  8
Solder_Pad_1_Top
100
AcDbVertex
100
AcDb2dVertex
 10
31.5
 20
8.86603
  0
VERTEX
  5
459
100
AcDbEntity
  8
Solder_Pad_1_Top
100
AcDbVertex
100
AcDb2dVertex
 10
31.5
 20
7.13398
  0
VERTEX
  5
45A
100
AcDbEntity
  8
Solder_Pad_1_Top
100
AcDbVertex
100
AcDb2dVertex
 10
30.0
 20
6.26795
  0
VERTEX
  5
45B
100
AcDbEntity
  8
Solder_Pad_1_Top
100
AcDbVertex
100
AcDb2dVertex
 10
28.5
 20
7.13398
  0
VERTEX
  5
45C
100
AcDbEntity
  8
Solder_Pad_1_Top
100
AcDbVertex
100
AcDb2dVertex
 10
28.5
 20
8.86603
  0
SEQEND
  5
45D
100
AcDbEntity
  8
Solder_Pad_1_Top
  0
HATCH
  5
45E
100
AcDbEntity
  8
Solder_Pad_1_Top
100
AcDbHatch
 10
0.0
 20
0.0
 30
0.0
210
0.0
220
0.0
230
1.0
  2
SOLID
 70
       1
 71
       1
 91
        1
 92
        1
 93
        6
 72
       1
 10
26.75
 20
10.133979999999999
 11
28.25
 21
9.2679500000000008
 72
       1
 10
28.25
 20
9.2679500000000008
 11
29.75
 21
10.133979999999999
 72
       1
 10
29.75
 20
10.133979999999999
 11
29.75
 21
11.86603
 72
       1
 10
29.75
 20
11.86603
 11
28.25
 21
12.732049999999999
 72
       1
 10
28.25
 20
12.732049999999999
 11
26.75
 21
11.86603
 72
       1
 10
26.75
 20
11.86603
 11
26.75
 21
10.133979999999999
 97
        0
 75
       0
 76
       2
 98
        1
 10
0.0
 20
0.0
  0
POLYLINE
  5
45F
100
AcDbEntity
  8
Solder_Pad_1_Top
100
AcDb2dPolyline
 66
       1
 10
0.0
 20
0.0
 30
0.0
 70
       1
  0
VERTEX
  5
460
100
AcDbEntity
  8
Solder_Pad_1_Top
100
AcDbVertex
100
AcDb2dVertex
 10
26.75
 20
11.86603
  0
VERTEX
  5
461
100
AcDbEntity
  8
Solder_Pad_1_Top
100
AcDbVertex
100
AcDb2dVertex
 10
26.75
 20
11.86603
  0
VERTEX
  5
462
100
AcDbEntity
  8
Solder_Pad_1_Top
100
AcDbVertex
100
AcDb2dVertex
 10
28.25
 20
12.73205
  0
VERTEX
  5
463
100
AcDbEntity
  8
Solder_Pad_1_Top
100
AcDbVertex
100
AcDb2dVertex
 10
29.75
 20
11.86603
  0
VERTEX
  5
464
100
AcDbEntity
  8
Solder_Pad_1_Top
100
AcDbVertex
100
AcDb2dVertex
 10
29.75
 20
10.13398
  0
VERTEX
  5
465
100
AcDbEntity
  8
Solder_Pad_1_Top
100
AcDbVertex
100
AcDb2dVertex
 10
28.25
 20
9.26795
  0
VERTEX
  5
466
100
AcDbEntity
  8
Solder_Pad_1_Top
100
AcDbVertex
100
AcDb2dVertex
 10
26.75
 20
10.13398
  0
VERTEX
  5
467
100
AcDbEntity
  8
Solder_Pad_1_Top
100
AcDbVertex
100
AcDb2dVertex
 10
26.75
 20
11.86603
  0
SEQEND
  5
468
100
AcDbEntity
  8
Solder_Pad_1_Top
  0
HATCH
  5
469
100
AcDbEntity
  8
Solder_Pad_1_Top
100
AcDbHatch
 10
0.0
 20
0.0
 30
0.0
210
0.0
220
0.0
230
1.0
  2
SOLID
 70
       1
 71
       1
 91
        1
 92
        1
 93
        6
 72
       1
 10
23.25
 20
10.133979999999999
 11
24.75
 21
9.2679500000000008
 72
       1
 10
24.75
 20
9.2679500000000008
 11
26.25
 21
10.133979999999999
 72
       1
 10
26.25
 20
10.133979999999999
 11
26.25
 21
11.86603
 72
       1
 10
26.25
 20
11.86603
 11
24.75
 21
12.732049999999999
 72
       1
 10
24.75
 20
12.732049999999999
 11
23.25
 21
11.86603
 72
       1
 10
23.25
 20
11.86603
 11
23.25
 21
10.133979999999999
 97
        0
 75
       0
 76
       2
 98
        1
 10
0.0
 20
0.0
  0
POLYLINE
  5
46A
100
AcDbEntity
  8
Solder_Pad_1_Top
100
AcDb2dPolyline
 66
       1
 10
0.0
 20
0.0
 30
0.0
 70
       1
  0
VERTEX
  5
46B
100
AcDbEntity
  8
Solder_Pad_1_Top
100
AcDbVertex
100
AcDb2dVertex
 10
23.25
 20
11.86603
  0
VERTEX
  5
46C
100
AcDbEntity
  8
Solder_Pad_1_Top
100
AcDbVertex
100
AcDb2dVertex
 10
23.25
 20
11.86603
  0
VERTEX
  5
46D
100
AcDbEntity
  8
Solder_Pad_1_Top
100
AcDbVertex
100
AcDb2dVertex
 10
24.75
 20
12.73205
  0
VERTEX
  5
46E
100
AcDbEntity
  8
Solder_Pad_1_Top
100
AcDbVertex
100
AcDb2dVertex
 10
26.25
 20
11.86603
  0
VERTEX
  5
46F
100
AcDbEntity
  8
Solder_Pad_1_Top
100
AcDbVertex
100
AcDb2dVertex
 10
26.25
 20
10.13398
  0
VERTEX
  5
470
100
AcDbEntity
  8
Solder_Pad_1_Top
100
AcDbVertex
100
AcDb2dVertex
 10
24.75
 20
9.26795
  0
VERTEX
  5
471
100
AcDbEntity
  8
Solder_Pad_1_Top
100
AcDbVertex
100
AcDb2dVertex
 10
23.25
 20
10.13398
  0
VERTEX
  5
472
100
AcDbEntity
  8
Solder_Pad_1_Top
100
AcDbVertex
100
AcDb2dVertex
 10
23.25
 20
11.86603
  0
SEQEND
  5
473
100
AcDbEntity
  8
Solder_Pad_1_Top
  0
HATCH
  5
474
100
AcDbEntity
  8
Solder_Pad_1_Top
100
AcDbHatch
 10
0.0
 20
0.0
 30
0.0
210
0.0
220
0.0
230
1.0
  2
SOLID
 70
       1
 71
       1
 91
        1
 92
        1
 93
        6
 72
       1
 10
16.25
 20
10.133979999999999
 11
17.75
 21
9.2679500000000008
 72
       1
 10
17.75
 20
9.2679500000000008
 11
19.25
 21
10.133979999999999
 72
       1
 10
19.25
 20
10.133979999999999
 11
19.25
 21
11.86603
 72
       1
 10
19.25
 20
11.86603
 11
17.75
 21
12.732049999999999
 72
       1
 10
17.75
 20
12.732049999999999
 11
16.25
 21
11.86603
 72
       1
 10
16.25
 20
11.86603
 11
16.25
 21
10.133979999999999
 97
        0
 75
       0
 76
       2
 98
        1
 10
0.0
 20
0.0
  0
POLYLINE
  5
475
100
AcDbEntity
  8
Solder_Pad_1_Top
100
AcDb2dPolyline
 66
       1
 10
0.0
 20
0.0
 30
0.0
 70
       1
  0
VERTEX
  5
476
100
AcDbEntity
  8
Solder_Pad_1_Top
100
AcDbVertex
100
AcDb2dVertex
 10
16.25
 20
11.86603
  0
VERTEX
  5
477
100
AcDbEntity
  8
Solder_Pad_1_Top
100
AcDbVertex
100
AcDb2dVertex
 10
16.25
 20
11.86603
  0
VERTEX
  5
478
100
AcDbEntity
  8
Solder_Pad_1_Top
100
AcDbVertex
100
AcDb2dVertex
 10
17.75
 20
12.73205
  0
VERTEX
  5
479
100
AcDbEntity
  8
Solder_Pad_1_Top
100
AcDbVertex
100
AcDb2dVertex
 10
19.25
 20
11.86603
  0
VERTEX
  5
47A
100
AcDbEntity
  8
Solder_Pad_1_Top
100
AcDbVertex
100
AcDb2dVertex
 10
19.25
 20
10.13398
  0
VERTEX
  5
47B
100
AcDbEntity
  8
Solder_Pad_1_Top
100
AcDbVertex
100
AcDb2dVertex
 10
17.75
 20
9.26795
  0
VERTEX
  5
47C
100
AcDbEntity
  8
Solder_Pad_1_Top
100
AcDbVertex
100
AcDb2dVertex
 10
16.25
 20
10.13398
  0
VERTEX
  5
47D
100
AcDbEntity
  8
Solder_Pad_1_Top
100
AcDbVertex
100
AcDb2dVertex
 10
16.25
 20
11.86603
  0
SEQEND
  5
47E
100
AcDbEntity
  8
Solder_Pad_1_Top
  0
HATCH
  5
47F
100
AcDbEntity
  8
Solder_Pad_1_Top
100
AcDbHatch
 10
0.0
 20
0.0
 30
0.0
210
0.0
220
0.0
230
1.0
  2
SOLID
 70
       1
 71
       1
 91
        1
 92
        1
 93
        6
 72
       1
 10
12.75
 20
10.133979999999999
 11
14.25
 21
9.2679500000000008
 72
       1
 10
14.25
 20
9.2679500000000008
 11
15.75
 21
10.133979999999999
 72
       1
 10
15.75
 20
10.133979999999999
 11
15.75
 21
11.86603
 72
       1
 10
15.75
 20
11.86603
 11
14.25
 21
12.732049999999999
 72
       1
 10
14.25
 20
12.732049999999999
 11
12.75
 21
11.86603
 72
       1
 10
12.75
 20
11.86603
 11
12.75
 21
10.133979999999999
 97
        0
 75
       0
 76
       2
 98
        1
 10
0.0
 20
0.0
  0
POLYLINE
  5
480
100
AcDbEntity
  8
Solder_Pad_1_Top
100
AcDb2dPolyline
 66
       1
 10
0.0
 20
0.0
 30
0.0
 70
       1
  0
VERTEX
  5
481
100
AcDbEntity
  8
Solder_Pad_1_Top
100
AcDbVertex
100
AcDb2dVertex
 10
12.75
 20
11.86603
  0
VERTEX
  5
482
100
AcDbEntity
  8
Solder_Pad_1_Top
100
AcDbVertex
100
AcDb2dVertex
 10
12.75
 20
11.86603
  0
VERTEX
  5
483
100
AcDbEntity
  8
Solder_Pad_1_Top
100
AcDbVertex
100
AcDb2dVertex
 10
14.25
 20
12.73205
  0
VERTEX
  5
484
100
AcDbEntity
  8
Solder_Pad_1_Top
100
AcDbVertex
100
AcDb2dVertex
 10
15.75
 20
11.86603
  0
VERTEX
  5
485
100
AcDbEntity
  8
Solder_Pad_1_Top
100
AcDbVertex
100
AcDb2dVertex
 10
15.75
 20
10.13398
  0
VERTEX
  5
486
100
AcDbEntity
  8
Solder_Pad_1_Top
100
AcDbVertex
100
AcDb2dVertex
 10
14.25
 20
9.26795
  0
VERTEX
  5
487
100
AcDbEntity
  8
Solder_Pad_1_Top
100
AcDbVertex
100
AcDb2dVertex
 10
12.75
 20
10.13398
  0
VERTEX
  5
488
100
AcDbEntity
  8
Solder_Pad_1_Top
100
AcDbVertex
100
AcDb2dVertex
 10
12.75
 20
11.86603
  0
SEQEND
  5
489
100
AcDbEntity
  8
Solder_Pad_1_Top
  0
HATCH
  5
48A
100
AcDbEntity
  8
Solder_Pad_1_Top
100
AcDbHatch
 10
0.0
 20
0.0
 30
0.0
210
0.0
220
0.0
230
1.0
  2
SOLID
 70
       1
 71
       1
 91
        1
 92
        1
 93
        6
 72
       1
 10
9.25
 20
10.133979999999999
 11
10.75
 21
9.2679500000000008
 72
       1
 10
10.75
 20
9.2679500000000008
 11
12.25
 21
10.133979999999999
 72
       1
 10
12.25
 20
10.133979999999999
 11
12.25
 21
11.86603
 72
       1
 10
12.25
 20
11.86603
 11
10.75
 21
12.732049999999999
 72
       1
 10
10.75
 20
12.732049999999999
 11
9.25
 21
11.86603
 72
       1
 10
9.25
 20
11.86603
 11
9.25
 21
10.133979999999999
 97
        0
 75
       0
 76
       2
 98
        1
 10
0.0
 20
0.0
  0
POLYLINE
  5
48B
100
AcDbEntity
  8
Solder_Pad_1_Top
100
AcDb2dPolyline
 66
       1
 10
0.0
 20
0.0
 30
0.0
 70
       1
  0
VERTEX
  5
48C
100
AcDbEntity
  8
Solder_Pad_1_Top
100
AcDbVertex
100
AcDb2dVertex
 10
9.25
 20
11.86603
  0
VERTEX
  5
48D
100
AcDbEntity
  8
Solder_Pad_1_Top
100
AcDbVertex
100
AcDb2dVertex
 10
9.25
 20
11.86603
  0
VERTEX
  5
48E
100
AcDbEntity
  8
Solder_Pad_1_Top
100
AcDbVertex
100
AcDb2dVertex
 10
10.75
 20
12.73205
  0
VERTEX
  5
48F
100
AcDbEntity
  8
Solder_Pad_1_Top
100
AcDbVertex
100
AcDb2dVertex
 10
12.25
 20
11.86603
  0
VERTEX
  5
490
100
AcDbEntity
  8
Solder_Pad_1_Top
100
AcDbVertex
100
AcDb2dVertex
 10
12.25
 20
10.13398
  0
VERTEX
  5
491
100
AcDbEntity
  8
Solder_Pad_1_Top
100
AcDbVertex
100
AcDb2dVertex
 10
10.75
 20
9.26795
  0
VERTEX
  5
492
100
AcDbEntity
  8
Solder_Pad_1_Top
100
AcDbVertex
100
AcDb2dVertex
 10
9.25
 20
10.13398
  0
VERTEX
  5
493
100
AcDbEntity
  8
Solder_Pad_1_Top
100
AcDbVertex
100
AcDb2dVertex
 10
9.25
 20
11.86603
  0
SEQEND
  5
494
100
AcDbEntity
  8
Solder_Pad_1_Top
  0
HATCH
  5
495
100
AcDbEntity
  8
Solder_Pad_1_Top
100
AcDbHatch
 10
0.0
 20
0.0
 30
0.0
210
0.0
220
0.0
230
1.0
  2
SOLID
 70
       1
 71
       1
 91
        1
 92
        1
 93
        6
 72
       1
 10
5.75
 20
10.133979999999999
 11
7.25
 21
9.2679500000000008
 72
       1
 10
7.25
 20
9.2679500000000008
 11
8.75
 21
10.133979999999999
 72
       1
 10
8.75
 20
10.133979999999999
 11
8.75
 21
11.86603
 72
       1
 10
8.75
 20
11.86603
 11
7.25
 21
12.732049999999999
 72
       1
 10
7.25
 20
12.732049999999999
 11
5.75
 21
11.86603
 72
       1
 10
5.75
 20
11.86603
 11
5.75
 21
10.133979999999999
 97
        0
 75
       0
 76
       2
 98
        1
 10
0.0
 20
0.0
  0
POLYLINE
  5
496
100
AcDbEntity
  8
Solder_Pad_1_Top
100
AcDb2dPolyline
 66
       1
 10
0.0
 20
0.0
 30
0.0
 70
       1
  0
VERTEX
  5
497
100
AcDbEntity
  8
Solder_Pad_1_Top
100
AcDbVertex
100
AcDb2dVertex
 10
5.75
 20
11.86603
  0
VERTEX
  5
498
100
AcDbEntity
  8
Solder_Pad_1_Top
100
AcDbVertex
100
AcDb2dVertex
 10
5.75
 20
11.86603
  0
VERTEX
  5
499
100
AcDbEntity
  8
Solder_Pad_1_Top
100
AcDbVertex
100
AcDb2dVertex
 10
7.25
 20
12.73205
  0
VERTEX
  5
49A
100
AcDbEntity
  8
Solder_Pad_1_Top
100
AcDbVertex
100
AcDb2dVertex
 10
8.75
 20
11.86603
  0
VERTEX
  5
49B
100
AcDbEntity
  8
Solder_Pad_1_Top
100
AcDbVertex
100
AcDb2dVertex
 10
8.75
 20
10.13398
  0
VERTEX
  5
49C
100
AcDbEntity
  8
Solder_Pad_1_Top
100
AcDbVertex
100
AcDb2dVertex
 10
7.25
 20
9.26795
  0
VERTEX
  5
49D
100
AcDbEntity
  8
Solder_Pad_1_Top
100
AcDbVertex
100
AcDb2dVertex
 10
5.75
 20
10.13398
  0
VERTEX
  5
49E
100
AcDbEntity
  8
Solder_Pad_1_Top
100
AcDbVertex
100
AcDb2dVertex
 10
5.75
 20
11.86603
  0
SEQEND
  5
49F
100
AcDbEntity
  8
Solder_Pad_1_Top
  0
HATCH
  5
4A0
100
AcDbEntity
  8
Solder_Pad_1_Top
100
AcDbHatch
 10
0.0
 20
0.0
 30
0.0
210
0.0
220
0.0
230
1.0
  2
SOLID
 70
       1
 71
       1
 91
        1
 92
        1
 93
        6
 72
       1
 10
28.5
 20
13.133979999999999
 11
30.0
 21
12.267950000000001
 72
       1
 10
30.0
 20
12.267950000000001
 11
31.5
 21
13.133979999999999
 72
       1
 10
31.5
 20
13.133979999999999
 11
31.5
 21
14.86603
 72
       1
 10
31.5
 20
14.86603
 11
30.0
 21
15.732049999999999
 72
       1
 10
30.0
 20
15.732049999999999
 11
28.5
 21
14.86603
 72
       1
 10
28.5
 20
14.86603
 11
28.5
 21
13.133979999999999
 97
        0
 75
       0
 76
       2
 98
        1
 10
0.0
 20
0.0
  0
POLYLINE
  5
4A1
100
AcDbEntity
  8
Solder_Pad_1_Top
100
AcDb2dPolyline
 66
       1
 10
0.0
 20
0.0
 30
0.0
 70
       1
  0
VERTEX
  5
4A2
100
AcDbEntity
  8
Solder_Pad_1_Top
100
AcDbVertex
100
AcDb2dVertex
 10
28.5
 20
14.86603
  0
VERTEX
  5
4A3
100
AcDbEntity
  8
Solder_Pad_1_Top
100
AcDbVertex
100
AcDb2dVertex
 10
28.5
 20
14.86603
  0
VERTEX
  5
4A4
100
AcDbEntity
  8
Solder_Pad_1_Top
100
AcDbVertex
100
AcDb2dVertex
 10
30.0
 20
15.73205
  0
VERTEX
  5
4A5
100
AcDbEntity
  8
Solder_Pad_1_Top
100
AcDbVertex
100
AcDb2dVertex
 10
31.5
 20
14.86603
  0
VERTEX
  5
4A6
100
AcDbEntity
  8
Solder_Pad_1_Top
100
AcDbVertex
100
AcDb2dVertex
 10
31.5
 20
13.13398
  0
VERTEX
  5
4A7
100
AcDbEntity
  8
Solder_Pad_1_Top
100
AcDbVertex
100
AcDb2dVertex
 10
30.0
 20
12.26795
  0
VERTEX
  5
4A8
100
AcDbEntity
  8
Solder_Pad_1_Top
100
AcDbVertex
100
AcDb2dVertex
 10
28.5
 20
13.13398
  0
VERTEX
  5
4A9
100
AcDbEntity
  8
Solder_Pad_1_Top
100
AcDbVertex
100
AcDb2dVertex
 10
28.5
 20
14.86603
  0
SEQEND
  5
4AA
100
AcDbEntity
  8
Solder_Pad_1_Top
  0
HATCH
  5
4AB
100
AcDbEntity
  8
Solder_Pad_1_Top
100
AcDbHatch
 10
0.0
 20
0.0
 30
0.0
210
0.0
220
0.0
230
1.0
  2
SOLID
 70
       1
 71
       1
 91
        1
 92
        1
 93
        6
 72
       1
 10
25.0
 20
13.133979999999999
 11
26.5
 21
12.267950000000001
 72
       1
 10
26.5
 20
12.267950000000001
 11
28.0
 21
13.133979999999999
 72
       1
 10
28.0
 20
13.133979999999999
 11
28.0
 21
14.86603
 72
       1
 10
28.0
 20
14.86603
 11
26.5
 21
15.732049999999999
 72
       1
 10
26.5
 20
15.732049999999999
 11
25.0
 21
14.86603
 72
       1
 10
25.0
 20
14.86603
 11
25.0
 21
13.133979999999999
 97
        0
 75
       0
 76
       2
 98
        1
 10
0.0
 20
0.0
  0
POLYLINE
  5
4AC
100
AcDbEntity
  8
Solder_Pad_1_Top
100
AcDb2dPolyline
 66
       1
 10
0.0
 20
0.0
 30
0.0
 70
       1
  0
VERTEX
  5
4AD
100
AcDbEntity
  8
Solder_Pad_1_Top
100
AcDbVertex
100
AcDb2dVertex
 10
25.0
 20
14.86603
  0
VERTEX
  5
4AE
100
AcDbEntity
  8
Solder_Pad_1_Top
100
AcDbVertex
100
AcDb2dVertex
 10
25.0
 20
14.86603
  0
VERTEX
  5
4AF
100
AcDbEntity
  8
Solder_Pad_1_Top
100
AcDbVertex
100
AcDb2dVertex
 10
26.5
 20
15.73205
  0
VERTEX
  5
4B0
100
AcDbEntity
  8
Solder_Pad_1_Top
100
AcDbVertex
100
AcDb2dVertex
 10
28.0
 20
14.86603
  0
VERTEX
  5
4B1
100
AcDbEntity
  8
Solder_Pad_1_Top
100
AcDbVertex
100
AcDb2dVertex
 10
28.0
 20
13.13398
  0
VERTEX
  5
4B2
100
AcDbEntity
  8
Solder_Pad_1_Top
100
AcDbVertex
100
AcDb2dVertex
 10
26.5
 20
12.26795
  0
VERTEX
  5
4B3
100
AcDbEntity
  8
Solder_Pad_1_Top
100
AcDbVertex
100
AcDb2dVertex
 10
25.0
 20
13.13398
  0
VERTEX
  5
4B4
100
AcDbEntity
  8
Solder_Pad_1_Top
100
AcDbVertex
100
AcDb2dVertex
 10
25.0
 20
14.86603
  0
SEQEND
  5
4B5
100
AcDbEntity
  8
Solder_Pad_1_Top
  0
HATCH
  5
4B6
100
AcDbEntity
  8
Solder_Pad_1_Top
100
AcDbHatch
 10
0.0
 20
0.0
 30
0.0
210
0.0
220
0.0
230
1.0
  2
SOLID
 70
       1
 71
       1
 91
        1
 92
        1
 93
        6
 72
       1
 10
21.5
 20
13.133979999999999
 11
23.0
 21
12.267950000000001
 72
       1
 10
23.0
 20
12.267950000000001
 11
24.5
 21
13.133979999999999
 72
       1
 10
24.5
 20
13.133979999999999
 11
24.5
 21
14.86603
 72
       1
 10
24.5
 20
14.86603
 11
23.0
 21
15.732049999999999
 72
       1
 10
23.0
 20
15.732049999999999
 11
21.5
 21
14.86603
 72
       1
 10
21.5
 20
14.86603
 11
21.5
 21
13.133979999999999
 97
        0
 75
       0
 76
       2
 98
        1
 10
0.0
 20
0.0
  0
POLYLINE
  5
4B7
100
AcDbEntity
  8
Solder_Pad_1_Top
100
AcDb2dPolyline
 66
       1
 10
0.0
 20
0.0
 30
0.0
 70
       1
  0
VERTEX
  5
4B8
100
AcDbEntity
  8
Solder_Pad_1_Top
100
AcDbVertex
100
AcDb2dVertex
 10
21.5
 20
14.86603
  0
VERTEX
  5
4B9
100
AcDbEntity
  8
Solder_Pad_1_Top
100
AcDbVertex
100
AcDb2dVertex
 10
21.5
 20
14.86603
  0
VERTEX
  5
4BA
100
AcDbEntity
  8
Solder_Pad_1_Top
100
AcDbVertex
100
AcDb2dVertex
 10
23.0
 20
15.73205
  0
VERTEX
  5
4BB
100
AcDbEntity
  8
Solder_Pad_1_Top
100
AcDbVertex
100
AcDb2dVertex
 10
24.5
 20
14.86603
  0
VERTEX
  5
4BC
100
AcDbEntity
  8
Solder_Pad_1_Top
100
AcDbVertex
100
AcDb2dVertex
 10
24.5
 20
13.13398
  0
VERTEX
  5
4BD
100
AcDbEntity
  8
Solder_Pad_1_Top
100
AcDbVertex
100
AcDb2dVertex
 10
23.0
 20
12.26795
  0
VERTEX
  5
4BE
100
AcDbEntity
  8
Solder_Pad_1_Top
100
AcDbVertex
100
AcDb2dVertex
 10
21.5
 20
13.13398
  0
VERTEX
  5
4BF
100
AcDbEntity
  8
Solder_Pad_1_Top
100
AcDbVertex
100
AcDb2dVertex
 10
21.5
 20
14.86603
  0
SEQEND
  5
4C0
100
AcDbEntity
  8
Solder_Pad_1_Top
  0
HATCH
  5
4C1
100
AcDbEntity
  8
Solder_Pad_1_Top
100
AcDbHatch
 10
0.0
 20
0.0
 30
0.0
210
0.0
220
0.0
230
1.0
  2
SOLID
 70
       1
 71
       1
 91
        1
 92
        1
 93
        6
 72
       1
 10
26.75
 20
16.133980000000001
 11
28.25
 21
15.267950000000001
 72
       1
 10
28.25
 20
15.267950000000001
 11
29.75
 21
16.133980000000001
 72
       1
 10
29.75
 20
16.133980000000001
 11
29.75
 21
17.866029999999999
 72
       1
 10
29.75
 20
17.866029999999999
 11
28.25
 21
18.732050000000001
 72
       1
 10
28.25
 20
18.732050000000001
 11
26.75
 21
17.866029999999999
 72
       1
 10
26.75
 20
17.866029999999999
 11
26.75
 21
16.133980000000001
 97
        0
 75
       0
 76
       2
 98
        1
 10
0.0
 20
0.0
  0
POLYLINE
  5
4C2
100
AcDbEntity
  8
Solder_Pad_1_Top
100
AcDb2dPolyline
 66
       1
 10
0.0
 20
0.0
 30
0.0
 70
       1
  0
VERTEX
  5
4C3
100
AcDbEntity
  8
Solder_Pad_1_Top
100
AcDbVertex
100
AcDb2dVertex
 10
26.75
 20
17.86603
  0
VERTEX
  5
4C4
100
AcDbEntity
  8
Solder_Pad_1_Top
100
AcDbVertex
100
AcDb2dVertex
 10
26.75
 20
17.86603
  0
VERTEX
  5
4C5
100
AcDbEntity
  8
Solder_Pad_1_Top
100
AcDbVertex
100
AcDb2dVertex
 10
28.25
 20
18.73205
  0
VERTEX
  5
4C6
100
AcDbEntity
  8
Solder_Pad_1_Top
100
AcDbVertex
100
AcDb2dVertex
 10
29.75
 20
17.86603
  0
VERTEX
  5
4C7
100
AcDbEntity
  8
Solder_Pad_1_Top
100
AcDbVertex
100
AcDb2dVertex
 10
29.75
 20
16.13398
  0
VERTEX
  5
4C8
100
AcDbEntity
  8
Solder_Pad_1_Top
100
AcDbVertex
100
AcDb2dVertex
 10
28.25
 20
15.26795
  0
VERTEX
  5
4C9
100
AcDbEntity
  8
Solder_Pad_1_Top
100
AcDbVertex
100
AcDb2dVertex
 10
26.75
 20
16.13398
  0
VERTEX
  5
4CA
100
AcDbEntity
  8
Solder_Pad_1_Top
100
AcDbVertex
100
AcDb2dVertex
 10
26.75
 20
17.86603
  0
SEQEND
  5
4CB
100
AcDbEntity
  8
Solder_Pad_1_Top
  0
HATCH
  5
4CC
100
AcDbEntity
  8
Solder_Pad_1_Top
100
AcDbHatch
 10
0.0
 20
0.0
 30
0.0
210
0.0
220
0.0
230
1.0
  2
SOLID
 70
       1
 71
       1
 91
        1
 92
        1
 93
        6
 72
       1
 10
14.5
 20
13.133979999999999
 11
16.0
 21
12.267950000000001
 72
       1
 10
16.0
 20
12.267950000000001
 11
17.5
 21
13.133979999999999
 72
       1
 10
17.5
 20
13.133979999999999
 11
17.5
 21
14.86603
 72
       1
 10
17.5
 20
14.86603
 11
16.0
 21
15.732049999999999
 72
       1
 10
16.0
 20
15.732049999999999
 11
14.5
 21
14.86603
 72
       1
 10
14.5
 20
14.86603
 11
14.5
 21
13.133979999999999
 97
        0
 75
       0
 76
       2
 98
        1
 10
0.0
 20
0.0
  0
POLYLINE
  5
4CD
100
AcDbEntity
  8
Solder_Pad_1_Top
100
AcDb2dPolyline
 66
       1
 10
0.0
 20
0.0
 30
0.0
 70
       1
  0
VERTEX
  5
4CE
100
AcDbEntity
  8
Solder_Pad_1_Top
100
AcDbVertex
100
AcDb2dVertex
 10
14.5
 20
14.86603
  0
VERTEX
  5
4CF
100
AcDbEntity
  8
Solder_Pad_1_Top
100
AcDbVertex
100
AcDb2dVertex
 10
14.5
 20
14.86603
  0
VERTEX
  5
4D0
100
AcDbEntity
  8
Solder_Pad_1_Top
100
AcDbVertex
100
AcDb2dVertex
 10
16.0
 20
15.73205
  0
VERTEX
  5
4D1
100
AcDbEntity
  8
Solder_Pad_1_Top
100
AcDbVertex
100
AcDb2dVertex
 10
17.5
 20
14.86603
  0
VERTEX
  5
4D2
100
AcDbEntity
  8
Solder_Pad_1_Top
100
AcDbVertex
100
AcDb2dVertex
 10
17.5
 20
13.13398
  0
VERTEX
  5
4D3
100
AcDbEntity
  8
Solder_Pad_1_Top
100
AcDbVertex
100
AcDb2dVertex
 10
16.0
 20
12.26795
  0
VERTEX
  5
4D4
100
AcDbEntity
  8
Solder_Pad_1_Top
100
AcDbVertex
100
AcDb2dVertex
 10
14.5
 20
13.13398
  0
VERTEX
  5
4D5
100
AcDbEntity
  8
Solder_Pad_1_Top
100
AcDbVertex
100
AcDb2dVertex
 10
14.5
 20
14.86603
  0
SEQEND
  5
4D6
100
AcDbEntity
  8
Solder_Pad_1_Top
  0
HATCH
  5
4D7
100
AcDbEntity
  8
Solder_Pad_1_Top
100
AcDbHatch
 10
0.0
 20
0.0
 30
0.0
210
0.0
220
0.0
230
1.0
  2
SOLID
 70
       1
 71
       1
 91
        1
 92
        1
 93
        6
 72
       1
 10
11.0
 20
13.133979999999999
 11
12.5
 21
12.267950000000001
 72
       1
 10
12.5
 20
12.267950000000001
 11
14.0
 21
13.133979999999999
 72
       1
 10
14.0
 20
13.133979999999999
 11
14.0
 21
14.86603
 72
       1
 10
14.0
 20
14.86603
 11
12.5
 21
15.732049999999999
 72
       1
 10
12.5
 20
15.732049999999999
 11
11.0
 21
14.86603
 72
       1
 10
11.0
 20
14.86603
 11
11.0
 21
13.133979999999999
 97
        0
 75
       0
 76
       2
 98
        1
 10
0.0
 20
0.0
  0
POLYLINE
  5
4D8
100
AcDbEntity
  8
Solder_Pad_1_Top
100
AcDb2dPolyline
 66
       1
 10
0.0
 20
0.0
 30
0.0
 70
       1
  0
VERTEX
  5
4D9
100
AcDbEntity
  8
Solder_Pad_1_Top
100
AcDbVertex
100
AcDb2dVertex
 10
11.0
 20
14.86603
  0
VERTEX
  5
4DA
100
AcDbEntity
  8
Solder_Pad_1_Top
100
AcDbVertex
100
AcDb2dVertex
 10
11.0
 20
14.86603
  0
VERTEX
  5
4DB
100
AcDbEntity
  8
Solder_Pad_1_Top
100
AcDbVertex
100
AcDb2dVertex
 10
12.5
 20
15.73205
  0
VERTEX
  5
4DC
100
AcDbEntity
  8
Solder_Pad_1_Top
100
AcDbVertex
100
AcDb2dVertex
 10
14.0
 20
14.86603
  0
VERTEX
  5
4DD
100
AcDbEntity
  8
Solder_Pad_1_Top
100
AcDbVertex
100
AcDb2dVertex
 10
14.0
 20
13.13398
  0
VERTEX
  5
4DE
100
AcDbEntity
  8
Solder_Pad_1_Top
100
AcDbVertex
100
AcDb2dVertex
 10
12.5
 20
12.26795
  0
VERTEX
  5
4DF
100
AcDbEntity
  8
Solder_Pad_1_Top
100
AcDbVertex
100
AcDb2dVertex
 10
11.0
 20
13.13398
  0
VERTEX
  5
4E0
100
AcDbEntity
  8
Solder_Pad_1_Top
100
AcDbVertex
100
AcDb2dVertex
 10
11.0
 20
14.86603
  0
SEQEND
  5
4E1
100
AcDbEntity
  8
Solder_Pad_1_Top
  0
HATCH
  5
4E2
100
AcDbEntity
  8
Solder_Pad_1_Top
100
AcDbHatch
 10
0.0
 20
0.0
 30
0.0
210
0.0
220
0.0
230
1.0
  2
SOLID
 70
       1
 71
       1
 91
        1
 92
        1
 93
        6
 72
       1
 10
4.0
 20
13.133979999999999
 11
5.5
 21
12.267950000000001
 72
       1
 10
5.5
 20
12.267950000000001
 11
7.0
 21
13.133979999999999
 72
       1
 10
7.0
 20
13.133979999999999
 11
7.0
 21
14.86603
 72
       1
 10
7.0
 20
14.86603
 11
5.5
 21
15.732049999999999
 72
       1
 10
5.5
 20
15.732049999999999
 11
4.0
 21
14.86603
 72
       1
 10
4.0
 20
14.86603
 11
4.0
 21
13.133979999999999
 97
        0
 75
       0
 76
       2
 98
        1
 10
0.0
 20
0.0
  0
POLYLINE
  5
4E3
100
AcDbEntity
  8
Solder_Pad_1_Top
100
AcDb2dPolyline
 66
       1
 10
0.0
 20
0.0
 30
0.0
 70
       1
  0
VERTEX
  5
4E4
100
AcDbEntity
  8
Solder_Pad_1_Top
100
AcDbVertex
100
AcDb2dVertex
 10
4.0
 20
14.86603
  0
VERTEX
  5
4E5
100
AcDbEntity
  8
Solder_Pad_1_Top
100
AcDbVertex
100
AcDb2dVertex
 10
4.0
 20
14.86603
  0
VERTEX
  5
4E6
100
AcDbEntity
  8
Solder_Pad_1_Top
100
AcDbVertex
100
AcDb2dVertex
 10
5.5
 20
15.73205
  0
VERTEX
  5
4E7
100
AcDbEntity
  8
Solder_Pad_1_Top
100
AcDbVertex
100
AcDb2dVertex
 10
7.0
 20
14.86603
  0
VERTEX
  5
4E8
100
AcDbEntity
  8
Solder_Pad_1_Top
100
AcDbVertex
100
AcDb2dVertex
 10
7.0
 20
13.13398
  0
VERTEX
  5
4E9
100
AcDbEntity
  8
Solder_Pad_1_Top
100
AcDbVertex
100
AcDb2dVertex
 10
5.5
 20
12.26795
  0
VERTEX
  5
4EA
100
AcDbEntity
  8
Solder_Pad_1_Top
100
AcDbVertex
100
AcDb2dVertex
 10
4.0
 20
13.13398
  0
VERTEX
  5
4EB
100
AcDbEntity
  8
Solder_Pad_1_Top
100
AcDbVertex
100
AcDb2dVertex
 10
4.0
 20
14.86603
  0
SEQEND
  5
4EC
100
AcDbEntity
  8
Solder_Pad_1_Top
  0
HATCH
  5
4ED
100
AcDbEntity
  8
Solder_Pad_1_Top
100
AcDbHatch
 10
0.0
 20
0.0
 30
0.0
210
0.0
220
0.0
230
1.0
  2
SOLID
 70
       1
 71
       1
 91
        1
 92
        1
 93
        6
 72
       1
 10
19.75
 20
16.133980000000001
 11
21.25
 21
15.267950000000001
 72
       1
 10
21.25
 20
15.267950000000001
 11
22.75
 21
16.133980000000001
 72
       1
 10
22.75
 20
16.133980000000001
 11
22.75
 21
17.866029999999999
 72
       1
 10
22.75
 20
17.866029999999999
 11
21.25
 21
18.732050000000001
 72
       1
 10
21.25
 20
18.732050000000001
 11
19.75
 21
17.866029999999999
 72
       1
 10
19.75
 20
17.866029999999999
 11
19.75
 21
16.133980000000001
 97
        0
 75
       0
 76
       2
 98
        1
 10
0.0
 20
0.0
  0
POLYLINE
  5
4EE
100
AcDbEntity
  8
Solder_Pad_1_Top
100
AcDb2dPolyline
 66
       1
 10
0.0
 20
0.0
 30
0.0
 70
       1
  0
VERTEX
  5
4EF
100
AcDbEntity
  8
Solder_Pad_1_Top
100
AcDbVertex
100
AcDb2dVertex
 10
19.75
 20
17.86603
  0
VERTEX
  5
4F0
100
AcDbEntity
  8
Solder_Pad_1_Top
100
AcDbVertex
100
AcDb2dVertex
 10
19.75
 20
17.86603
  0
VERTEX
  5
4F1
100
AcDbEntity
  8
Solder_Pad_1_Top
100
AcDbVertex
100
AcDb2dVertex
 10
21.25
 20
18.73205
  0
VERTEX
  5
4F2
100
AcDbEntity
  8
Solder_Pad_1_Top
100
AcDbVertex
100
AcDb2dVertex
 10
22.75
 20
17.86603
  0
VERTEX
  5
4F3
100
AcDbEntity
  8
Solder_Pad_1_Top
100
AcDbVertex
100
AcDb2dVertex
 10
22.75
 20
16.13398
  0
VERTEX
  5
4F4
100
AcDbEntity
  8
Solder_Pad_1_Top
100
AcDbVertex
100
AcDb2dVertex
 10
21.25
 20
15.26795
  0
VERTEX
  5
4F5
100
AcDbEntity
  8
Solder_Pad_1_Top
100
AcDbVertex
100
AcDb2dVertex
 10
19.75
 20
16.13398
  0
VERTEX
  5
4F6
100
AcDbEntity
  8
Solder_Pad_1_Top
100
AcDbVertex
100
AcDb2dVertex
 10
19.75
 20
17.86603
  0
SEQEND
  5
4F7
100
AcDbEntity
  8
Solder_Pad_1_Top
  0
HATCH
  5
4F8
100
AcDbEntity
  8
Solder_Pad_1_Top
100
AcDbHatch
 10
0.0
 20
0.0
 30
0.0
210
0.0
220
0.0
230
1.0
  2
SOLID
 70
       1
 71
       1
 91
        1
 92
        1
 93
        6
 72
       1
 10
12.75
 20
16.133980000000001
 11
14.25
 21
15.267950000000001
 72
       1
 10
14.25
 20
15.267950000000001
 11
15.75
 21
16.133980000000001
 72
       1
 10
15.75
 20
16.133980000000001
 11
15.75
 21
17.866029999999999
 72
       1
 10
15.75
 20
17.866029999999999
 11
14.25
 21
18.732050000000001
 72
       1
 10
14.25
 20
18.732050000000001
 11
12.75
 21
17.866029999999999
 72
       1
 10
12.75
 20
17.866029999999999
 11
12.75
 21
16.133980000000001
 97
        0
 75
       0
 76
       2
 98
        1
 10
0.0
 20
0.0
  0
POLYLINE
  5
4F9
100
AcDbEntity
  8
Solder_Pad_1_Top
100
AcDb2dPolyline
 66
       1
 10
0.0
 20
0.0
 30
0.0
 70
       1
  0
VERTEX
  5
4FA
100
AcDbEntity
  8
Solder_Pad_1_Top
100
AcDbVertex
100
AcDb2dVertex
 10
12.75
 20
17.86603
  0
VERTEX
  5
4FB
100
AcDbEntity
  8
Solder_Pad_1_Top
100
AcDbVertex
100
AcDb2dVertex
 10
12.75
 20
17.86603
  0
VERTEX
  5
4FC
100
AcDbEntity
  8
Solder_Pad_1_Top
100
AcDbVertex
100
AcDb2dVertex
 10
14.25
 20
18.73205
  0
VERTEX
  5
4FD
100
AcDbEntity
  8
Solder_Pad_1_Top
100
AcDbVertex
100
AcDb2dVertex
 10
15.75
 20
17.86603
  0
VERTEX
  5
4FE
100
AcDbEntity
  8
Solder_Pad_1_Top
100
AcDbVertex
100
AcDb2dVertex
 10
15.75
 20
16.13398
  0
VERTEX
  5
4FF
100
AcDbEntity
  8
Solder_Pad_1_Top
100
AcDbVertex
100
AcDb2dVertex
 10
14.25
 20
15.26795
  0
VERTEX
  5
500
100
AcDbEntity
  8
Solder_Pad_1_Top
100
AcDbVertex
100
AcDb2dVertex
 10
12.75
 20
16.13398
  0
VERTEX
  5
501
100
AcDbEntity
  8
Solder_Pad_1_Top
100
AcDbVertex
100
AcDb2dVertex
 10
12.75
 20
17.86603
  0
SEQEND
  5
502
100
AcDbEntity
  8
Solder_Pad_1_Top
  0
HATCH
  5
503
100
AcDbEntity
  8
Solder_Pad_1_Top
100
AcDbHatch
 10
0.0
 20
0.0
 30
0.0
210
0.0
220
0.0
230
1.0
  2
SOLID
 70
       1
 71
       1
 91
        1
 92
        1
 93
        6
 72
       1
 10
9.25
 20
16.133980000000001
 11
10.75
 21
15.267950000000001
 72
       1
 10
10.75
 20
15.267950000000001
 11
12.25
 21
16.133980000000001
 72
       1
 10
12.25
 20
16.133980000000001
 11
12.25
 21
17.866029999999999
 72
       1
 10
12.25
 20
17.866029999999999
 11
10.75
 21
18.732050000000001
 72
       1
 10
10.75
 20
18.732050000000001
 11
9.25
 21
17.866029999999999
 72
       1
 10
9.25
 20
17.866029999999999
 11
9.25
 21
16.133980000000001
 97
        0
 75
       0
 76
       2
 98
        1
 10
0.0
 20
0.0
  0
POLYLINE
  5
504
100
AcDbEntity
  8
Solder_Pad_1_Top
100
AcDb2dPolyline
 66
       1
 10
0.0
 20
0.0
 30
0.0
 70
       1
  0
VERTEX
  5
505
100
AcDbEntity
  8
Solder_Pad_1_Top
100
AcDbVertex
100
AcDb2dVertex
 10
9.25
 20
17.86603
  0
VERTEX
  5
506
100
AcDbEntity
  8
Solder_Pad_1_Top
100
AcDbVertex
100
AcDb2dVertex
 10
9.25
 20
17.86603
  0
VERTEX
  5
507
100
AcDbEntity
  8
Solder_Pad_1_Top
100
AcDbVertex
100
AcDb2dVertex
 10
10.75
 20
18.73205
  0
VERTEX
  5
508
100
AcDbEntity
  8
Solder_Pad_1_Top
100
AcDbVertex
100
AcDb2dVertex
 10
12.25
 20
17.86603
  0
VERTEX
  5
509
100
AcDbEntity
  8
Solder_Pad_1_Top
100
AcDbVertex
100
AcDb2dVertex
 10
12.25
 20
16.13398
  0
VERTEX
  5
50A
100
AcDbEntity
  8
Solder_Pad_1_Top
100
AcDbVertex
100
AcDb2dVertex
 10
10.75
 20
15.26795
  0
VERTEX
  5
50B
100
AcDbEntity
  8
Solder_Pad_1_Top
100
AcDbVertex
100
AcDb2dVertex
 10
9.25
 20
16.13398
  0
VERTEX
  5
50C
100
AcDbEntity
  8
Solder_Pad_1_Top
100
AcDbVertex
100
AcDb2dVertex
 10
9.25
 20
17.86603
  0
SEQEND
  5
50D
100
AcDbEntity
  8
Solder_Pad_1_Top
  0
HATCH
  5
50E
100
AcDbEntity
  8
Solder_Pad_1_Top
100
AcDbHatch
 10
0.0
 20
0.0
 30
0.0
210
0.0
220
0.0
230
1.0
  2
SOLID
 70
       1
 71
       1
 91
        1
 92
        1
 93
        6
 72
       1
 10
5.75
 20
16.133980000000001
 11
7.25
 21
15.267950000000001
 72
       1
 10
7.25
 20
15.267950000000001
 11
8.75
 21
16.133980000000001
 72
       1
 10
8.75
 20
16.133980000000001
 11
8.75
 21
17.866029999999999
 72
       1
 10
8.75
 20
17.866029999999999
 11
7.25
 21
18.732050000000001
 72
       1
 10
7.25
 20
18.732050000000001
 11
5.75
 21
17.866029999999999
 72
       1
 10
5.75
 20
17.866029999999999
 11
5.75
 21
16.133980000000001
 97
        0
 75
       0
 76
       2
 98
        1
 10
0.0
 20
0.0
  0
POLYLINE
  5
50F
100
AcDbEntity
  8
Solder_Pad_1_Top
100
AcDb2dPolyline
 66
       1
 10
0.0
 20
0.0
 30
0.0
 70
       1
  0
VERTEX
  5
510
100
AcDbEntity
  8
Solder_Pad_1_Top
100
AcDbVertex
100
AcDb2dVertex
 10
5.75
 20
17.86603
  0
VERTEX
  5
511
100
AcDbEntity
  8
Solder_Pad_1_Top
100
AcDbVertex
100
AcDb2dVertex
 10
5.75
 20
17.86603
  0
VERTEX
  5
512
100
AcDbEntity
  8
Solder_Pad_1_Top
100
AcDbVertex
100
AcDb2dVertex
 10
7.25
 20
18.73205
  0
VERTEX
  5
513
100
AcDbEntity
  8
Solder_Pad_1_Top
100
AcDbVertex
100
AcDb2dVertex
 10
8.75
 20
17.86603
  0
VERTEX
  5
514
100
AcDbEntity
  8
Solder_Pad_1_Top
100
AcDbVertex
100
AcDb2dVertex
 10
8.75
 20
16.13398
  0
VERTEX
  5
515
100
AcDbEntity
  8
Solder_Pad_1_Top
100
AcDbVertex
100
AcDb2dVertex
 10
7.25
 20
15.26795
  0
VERTEX
  5
516
100
AcDbEntity
  8
Solder_Pad_1_Top
100
AcDbVertex
100
AcDb2dVertex
 10
5.75
 20
16.13398
  0
VERTEX
  5
517
100
AcDbEntity
  8
Solder_Pad_1_Top
100
AcDbVertex
100
AcDb2dVertex
 10
5.75
 20
17.86603
  0
SEQEND
  5
518
100
AcDbEntity
  8
Solder_Pad_1_Top
  0
HATCH
  5
519
100
AcDbEntity
  8
Solder_Pad_1_Top
100
AcDbHatch
 10
0.0
 20
0.0
 30
0.0
210
0.0
220
0.0
230
1.0
  2
SOLID
 70
       1
 71
       1
 91
        1
 92
        1
 93
        6
 72
       1
 10
7.5
 20
13.133979999999999
 11
9.0
 21
12.267950000000001
 72
       1
 10
9.0
 20
12.267950000000001
 11
10.5
 21
13.133979999999999
 72
       1
 10
10.5
 20
13.133979999999999
 11
10.5
 21
14.86603
 72
       1
 10
10.5
 20
14.86603
 11
9.0
 21
15.732049999999999
 72
       1
 10
9.0
 20
15.732049999999999
 11
7.5
 21
14.86603
 72
       1
 10
7.5
 20
14.86603
 11
7.5
 21
13.133979999999999
 97
        0
 75
       0
 76
       2
 98
        1
 10
0.0
 20
0.0
  0
POLYLINE
  5
51A
100
AcDbEntity
  8
Solder_Pad_1_Top
100
AcDb2dPolyline
 66
       1
 10
0.0
 20
0.0
 30
0.0
 70
       1
  0
VERTEX
  5
51B
100
AcDbEntity
  8
Solder_Pad_1_Top
100
AcDbVertex
100
AcDb2dVertex
 10
7.5
 20
14.86603
  0
VERTEX
  5
51C
100
AcDbEntity
  8
Solder_Pad_1_Top
100
AcDbVertex
100
AcDb2dVertex
 10
7.5
 20
14.86603
  0
VERTEX
  5
51D
100
AcDbEntity
  8
Solder_Pad_1_Top
100
AcDbVertex
100
AcDb2dVertex
 10
9.0
 20
15.73205
  0
VERTEX
  5
51E
100
AcDbEntity
  8
Solder_Pad_1_Top
100
AcDbVertex
100
AcDb2dVertex
 10
10.5
 20
14.86603
  0
VERTEX
  5
51F
100
AcDbEntity
  8
Solder_Pad_1_Top
100
AcDbVertex
100
AcDb2dVertex
 10
10.5
 20
13.13398
  0
VERTEX
  5
520
100
AcDbEntity
  8
Solder_Pad_1_Top
100
AcDbVertex
100
AcDb2dVertex
 10
9.0
 20
12.26795
  0
VERTEX
  5
521
100
AcDbEntity
  8
Solder_Pad_1_Top
100
AcDbVertex
100
AcDb2dVertex
 10
7.5
 20
13.13398
  0
VERTEX
  5
522
100
AcDbEntity
  8
Solder_Pad_1_Top
100
AcDbVertex
100
AcDb2dVertex
 10
7.5
 20
14.86603
  0
SEQEND
  5
523
100
AcDbEntity
  8
Solder_Pad_1_Top
  0
HATCH
  5
524
100
AcDbEntity
  8
Solder_Pad_1_Top
100
AcDbHatch
 10
0.0
 20
0.0
 30
0.0
210
0.0
220
0.0
230
1.0
  2
SOLID
 70
       1
 71
       1
 91
        1
 92
        1
 93
        6
 72
       1
 10
18.0
 20
13.133979999999999
 11
19.5
 21
12.267950000000001
 72
       1
 10
19.5
 20
12.267950000000001
 11
21.0
 21
13.133979999999999
 72
       1
 10
21.0
 20
13.133979999999999
 11
21.0
 21
14.86603
 72
       1
 10
21.0
 20
14.86603
 11
19.5
 21
15.732049999999999
 72
       1
 10
19.5
 20
15.732049999999999
 11
18.0
 21
14.86603
 72
       1
 10
18.0
 20
14.86603
 11
18.0
 21
13.133979999999999
 97
        0
 75
       0
 76
       2
 98
        1
 10
0.0
 20
0.0
  0
POLYLINE
  5
525
100
AcDbEntity
  8
Solder_Pad_1_Top
100
AcDb2dPolyline
 66
       1
 10
0.0
 20
0.0
 30
0.0
 70
       1
  0
VERTEX
  5
526
100
AcDbEntity
  8
Solder_Pad_1_Top
100
AcDbVertex
100
AcDb2dVertex
 10
18.0
 20
14.86603
  0
VERTEX
  5
527
100
AcDbEntity
  8
Solder_Pad_1_Top
100
AcDbVertex
100
AcDb2dVertex
 10
18.0
 20
14.86603
  0
VERTEX
  5
528
100
AcDbEntity
  8
Solder_Pad_1_Top
100
AcDbVertex
100
AcDb2dVertex
 10
19.5
 20
15.73205
  0
VERTEX
  5
529
100
AcDbEntity
  8
Solder_Pad_1_Top
100
AcDbVertex
100
AcDb2dVertex
 10
21.0
 20
14.86603
  0
VERTEX
  5
52A
100
AcDbEntity
  8
Solder_Pad_1_Top
100
AcDbVertex
100
AcDb2dVertex
 10
21.0
 20
13.13398
  0
VERTEX
  5
52B
100
AcDbEntity
  8
Solder_Pad_1_Top
100
AcDbVertex
100
AcDb2dVertex
 10
19.5
 20
12.26795
  0
VERTEX
  5
52C
100
AcDbEntity
  8
Solder_Pad_1_Top
100
AcDbVertex
100
AcDb2dVertex
 10
18.0
 20
13.13398
  0
VERTEX
  5
52D
100
AcDbEntity
  8
Solder_Pad_1_Top
100
AcDbVertex
100
AcDb2dVertex
 10
18.0
 20
14.86603
  0
SEQEND
  5
52E
100
AcDbEntity
  8
Solder_Pad_1_Top
  0
HATCH
  5
52F
100
AcDbEntity
  8
Solder_Pad_1_Top
100
AcDbHatch
 10
0.0
 20
0.0
 30
0.0
210
0.0
220
0.0
230
1.0
  2
SOLID
 70
       1
 71
       1
 91
        1
 92
        1
 93
        6
 72
       1
 10
7.5
 20
7.1339800000000002
 11
9.0
 21
6.2679499999999999
 72
       1
 10
9.0
 20
6.2679499999999999
 11
10.5
 21
7.1339800000000002
 72
       1
 10
10.5
 20
7.1339800000000002
 11
10.5
 21
8.8660300000000003
 72
       1
 10
10.5
 20
8.8660300000000003
 11
9.0
 21
9.7320499999999992
 72
       1
 10
9.0
 20
9.7320499999999992
 11
7.5
 21
8.8660300000000003
 72
       1
 10
7.5
 20
8.8660300000000003
 11
7.5
 21
7.1339800000000002
 97
        0
 75
       0
 76
       2
 98
        1
 10
0.0
 20
0.0
  0
POLYLINE
  5
530
100
AcDbEntity
  8
Solder_Pad_1_Top
100
AcDb2dPolyline
 66
       1
 10
0.0
 20
0.0
 30
0.0
 70
       1
  0
VERTEX
  5
531
100
AcDbEntity
  8
Solder_Pad_1_Top
100
AcDbVertex
100
AcDb2dVertex
 10
7.5
 20
8.86603
  0
VERTEX
  5
532
100
AcDbEntity
  8
Solder_Pad_1_Top
100
AcDbVertex
100
AcDb2dVertex
 10
7.5
 20
8.86603
  0
VERTEX
  5
533
100
AcDbEntity
  8
Solder_Pad_1_Top
100
AcDbVertex
100
AcDb2dVertex
 10
9.0
 20
9.73205
  0
VERTEX
  5
534
100
AcDbEntity
  8
Solder_Pad_1_Top
100
AcDbVertex
100
AcDb2dVertex
 10
10.5
 20
8.86603
  0
VERTEX
  5
535
100
AcDbEntity
  8
Solder_Pad_1_Top
100
AcDbVertex
100
AcDb2dVertex
 10
10.5
 20
7.13398
  0
VERTEX
  5
536
100
AcDbEntity
  8
Solder_Pad_1_Top
100
AcDbVertex
100
AcDb2dVertex
 10
9.0
 20
6.26795
  0
VERTEX
  5
537
100
AcDbEntity
  8
Solder_Pad_1_Top
100
AcDbVertex
100
AcDb2dVertex
 10
7.5
 20
7.13398
  0
VERTEX
  5
538
100
AcDbEntity
  8
Solder_Pad_1_Top
100
AcDbVertex
100
AcDb2dVertex
 10
7.5
 20
8.86603
  0
SEQEND
  5
539
100
AcDbEntity
  8
Solder_Pad_1_Top
  0
HATCH
  5
53A
100
AcDbEntity
  8
Solder_Pad_1_Top
100
AcDbHatch
 10
0.0
 20
0.0
 30
0.0
210
0.0
220
0.0
230
1.0
  2
SOLID
 70
       1
 71
       1
 91
        1
 92
        1
 93
        6
 72
       1
 10
19.75
 20
10.133979999999999
 11
21.25
 21
9.2679500000000008
 72
       1
 10
21.25
 20
9.2679500000000008
 11
22.75
 21
10.133979999999999
 72
       1
 10
22.75
 20
10.133979999999999
 11
22.75
 21
11.86603
 72
       1
 10
22.75
 20
11.86603
 11
21.25
 21
12.732049999999999
 72
       1
 10
21.25
 20
12.732049999999999
 11
19.75
 21
11.86603
 72
       1
 10
19.75
 20
11.86603
 11
19.75
 21
10.133979999999999
 97
        0
 75
       0
 76
       2
 98
        1
 10
0.0
 20
0.0
  0
POLYLINE
  5
53B
100
AcDbEntity
  8
Solder_Pad_1_Top
100
AcDb2dPolyline
 66
       1
 10
0.0
 20
0.0
 30
0.0
 70
       1
  0
VERTEX
  5
53C
100
AcDbEntity
  8
Solder_Pad_1_Top
100
AcDbVertex
100
AcDb2dVertex
 10
19.75
 20
11.86603
  0
VERTEX
  5
53D
100
AcDbEntity
  8
Solder_Pad_1_Top
100
AcDbVertex
100
AcDb2dVertex
 10
19.75
 20
11.86603
  0
VERTEX
  5
53E
100
AcDbEntity
  8
Solder_Pad_1_Top
100
AcDbVertex
100
AcDb2dVertex
 10
21.25
 20
12.73205
  0
VERTEX
  5
53F
100
AcDbEntity
  8
Solder_Pad_1_Top
100
AcDbVertex
100
AcDb2dVertex
 10
22.75
 20
11.86603
  0
VERTEX
  5
540
100
AcDbEntity
  8
Solder_Pad_1_Top
100
AcDbVertex
100
AcDb2dVertex
 10
22.75
 20
10.13398
  0
VERTEX
  5
541
100
AcDbEntity
  8
Solder_Pad_1_Top
100
AcDbVertex
100
AcDb2dVertex
 10
21.25
 20
9.26795
  0
VERTEX
  5
542
100
AcDbEntity
  8
Solder_Pad_1_Top
100
AcDbVertex
100
AcDb2dVertex
 10
19.75
 20
10.13398
  0
VERTEX
  5
543
100
AcDbEntity
  8
Solder_Pad_1_Top
100
AcDbVertex
100
AcDb2dVertex
 10
19.75
 20
11.86603
  0
SEQEND
  5
544
100
AcDbEntity
  8
Solder_Pad_1_Top
  0
HATCH
  5
545
100
AcDbEntity
  8
Solder_Pad_1_Top
100
AcDbHatch
 10
0.0
 20
0.0
 30
0.0
210
0.0
220
0.0
230
1.0
  2
SOLID
 70
       1
 71
       1
 91
        1
 92
        1
 93
        6
 72
       1
 10
30.25
 20
16.133980000000001
 11
31.75
 21
15.267950000000001
 72
       1
 10
31.75
 20
15.267950000000001
 11
33.25
 21
16.133980000000001
 72
       1
 10
33.25
 20
16.133980000000001
 11
33.25
 21
17.866029999999999
 72
       1
 10
33.25
 20
17.866029999999999
 11
31.75
 21
18.732050000000001
 72
       1
 10
31.75
 20
18.732050000000001
 11
30.25
 21
17.866029999999999
 72
       1
 10
30.25
 20
17.866029999999999
 11
30.25
 21
16.133980000000001
 97
        0
 75
       0
 76
       2
 98
        1
 10
0.0
 20
0.0
  0
POLYLINE
  5
546
100
AcDbEntity
  8
Solder_Pad_1_Top
100
AcDb2dPolyline
 66
       1
 10
0.0
 20
0.0
 30
0.0
 70
       1
  0
VERTEX
  5
547
100
AcDbEntity
  8
Solder_Pad_1_Top
100
AcDbVertex
100
AcDb2dVertex
 10
30.25
 20
17.86603
  0
VERTEX
  5
548
100
AcDbEntity
  8
Solder_Pad_1_Top
100
AcDbVertex
100
AcDb2dVertex
 10
30.25
 20
17.86603
  0
VERTEX
  5
549
100
AcDbEntity
  8
Solder_Pad_1_Top
100
AcDbVertex
100
AcDb2dVertex
 10
31.75
 20
18.73205
  0
VERTEX
  5
54A
100
AcDbEntity
  8
Solder_Pad_1_Top
100
AcDbVertex
100
AcDb2dVertex
 10
33.25
 20
17.86603
  0
VERTEX
  5
54B
100
AcDbEntity
  8
Solder_Pad_1_Top
100
AcDbVertex
100
AcDb2dVertex
 10
33.25
 20
16.13398
  0
VERTEX
  5
54C
100
AcDbEntity
  8
Solder_Pad_1_Top
100
AcDbVertex
100
AcDb2dVertex
 10
31.75
 20
15.26795
  0
VERTEX
  5
54D
100
AcDbEntity
  8
Solder_Pad_1_Top
100
AcDbVertex
100
AcDb2dVertex
 10
30.25
 20
16.13398
  0
VERTEX
  5
54E
100
AcDbEntity
  8
Solder_Pad_1_Top
100
AcDbVertex
100
AcDb2dVertex
 10
30.25
 20
17.86603
  0
SEQEND
  5
54F
100
AcDbEntity
  8
Solder_Pad_1_Top
  0
HATCH
  5
550
100
AcDbEntity
  8
Solder_Pad_1_Top
100
AcDbHatch
 10
0.0
 20
0.0
 30
0.0
210
0.0
220
0.0
230
1.0
  2
SOLID
 70
       1
 71
       1
 91
        1
 92
        1
 93
        6
 72
       1
 10
30.25
 20
10.133979999999999
 11
31.75
 21
9.2679500000000008
 72
       1
 10
31.75
 20
9.2679500000000008
 11
33.25
 21
10.133979999999999
 72
       1
 10
33.25
 20
10.133979999999999
 11
33.25
 21
11.86603
 72
       1
 10
33.25
 20
11.86603
 11
31.75
 21
12.732049999999999
 72
       1
 10
31.75
 20
12.732049999999999
 11
30.25
 21
11.86603
 72
       1
 10
30.25
 20
11.86603
 11
30.25
 21
10.133979999999999
 97
        0
 75
       0
 76
       2
 98
        1
 10
0.0
 20
0.0
  0
POLYLINE
  5
551
100
AcDbEntity
  8
Solder_Pad_1_Top
100
AcDb2dPolyline
 66
       1
 10
0.0
 20
0.0
 30
0.0
 70
       1
  0
VERTEX
  5
552
100
AcDbEntity
  8
Solder_Pad_1_Top
100
AcDbVertex
100
AcDb2dVertex
 10
30.25
 20
11.86603
  0
VERTEX
  5
553
100
AcDbEntity
  8
Solder_Pad_1_Top
100
AcDbVertex
100
AcDb2dVertex
 10
30.25
 20
11.86603
  0
VERTEX
  5
554
100
AcDbEntity
  8
Solder_Pad_1_Top
100
AcDbVertex
100
AcDb2dVertex
 10
31.75
 20
12.73205
  0
VERTEX
  5
555
100
AcDbEntity
  8
Solder_Pad_1_Top
100
AcDbVertex
100
AcDb2dVertex
 10
33.25
 20
11.86603
  0
VERTEX
  5
556
100
AcDbEntity
  8
Solder_Pad_1_Top
100
AcDbVertex
100
AcDb2dVertex
 10
33.25
 20
10.13398
  0
VERTEX
  5
557
100
AcDbEntity
  8
Solder_Pad_1_Top
100
AcDbVertex
100
AcDb2dVertex
 10
31.75
 20
9.26795
  0
VERTEX
  5
558
100
AcDbEntity
  8
Solder_Pad_1_Top
100
AcDbVertex
100
AcDb2dVertex
 10
30.25
 20
10.13398
  0
VERTEX
  5
559
100
AcDbEntity
  8
Solder_Pad_1_Top
100
AcDbVertex
100
AcDb2dVertex
 10
30.25
 20
11.86603
  0
SEQEND
  5
55A
100
AcDbEntity
  8
Solder_Pad_1_Top
  0
HATCH
  5
55B
100
AcDbEntity
  8
Solder_Pad_1_Top
100
AcDbHatch
 10
0.0
 20
0.0
 30
0.0
210
0.0
220
0.0
230
1.0
  2
SOLID
 70
       1
 71
       1
 91
        1
 92
        1
 93
        6
 72
       1
 10
30.25
 20
4.1339800000000002
 11
31.75
 21
3.2679499999999999
 72
       1
 10
31.75
 20
3.2679499999999999
 11
33.25
 21
4.1339800000000002
 72
       1
 10
33.25
 20
4.1339800000000002
 11
33.25
 21
5.8660300000000003
 72
       1
 10
33.25
 20
5.8660300000000003
 11
31.75
 21
6.7320500000000001
 72
       1
 10
31.75
 20
6.7320500000000001
 11
30.25
 21
5.8660300000000003
 72
       1
 10
30.25
 20
5.8660300000000003
 11
30.25
 21
4.1339800000000002
 97
        0
 75
       0
 76
       2
 98
        1
 10
0.0
 20
0.0
  0
POLYLINE
  5
55C
100
AcDbEntity
  8
Solder_Pad_1_Top
100
AcDb2dPolyline
 66
       1
 10
0.0
 20
0.0
 30
0.0
 70
       1
  0
VERTEX
  5
55D
100
AcDbEntity
  8
Solder_Pad_1_Top
100
AcDbVertex
100
AcDb2dVertex
 10
30.25
 20
5.86603
  0
VERTEX
  5
55E
100
AcDbEntity
  8
Solder_Pad_1_Top
100
AcDbVertex
100
AcDb2dVertex
 10
30.25
 20
5.86603
  0
VERTEX
  5
55F
100
AcDbEntity
  8
Solder_Pad_1_Top
100
AcDbVertex
100
AcDb2dVertex
 10
31.75
 20
6.73205
  0
VERTEX
  5
560
100
AcDbEntity
  8
Solder_Pad_1_Top
100
AcDbVertex
100
AcDb2dVertex
 10
33.25
 20
5.86603
  0
VERTEX
  5
561
100
AcDbEntity
  8
Solder_Pad_1_Top
100
AcDbVertex
100
AcDb2dVertex
 10
33.25
 20
4.13398
  0
VERTEX
  5
562
100
AcDbEntity
  8
Solder_Pad_1_Top
100
AcDbVertex
100
AcDb2dVertex
 10
31.75
 20
3.26795
  0
VERTEX
  5
563
100
AcDbEntity
  8
Solder_Pad_1_Top
100
AcDbVertex
100
AcDb2dVertex
 10
30.25
 20
4.13398
  0
VERTEX
  5
564
100
AcDbEntity
  8
Solder_Pad_1_Top
100
AcDbVertex
100
AcDb2dVertex
 10
30.25
 20
5.86603
  0
SEQEND
  5
565
100
AcDbEntity
  8
Solder_Pad_1_Top
  0
HATCH
  5
566
100
AcDbEntity
  8
Solder_Pad_1_Top
100
AcDbHatch
 10
0.0
 20
0.0
 30
0.0
210
0.0
220
0.0
230
1.0
  2
SOLID
 70
       1
 71
       1
 91
        1
 92
        1
 93
        6
 72
       1
 10
47.75
 20
16.133980000000001
 11
49.25
 21
15.267950000000001
 72
       1
 10
49.25
 20
15.267950000000001
 11
50.75
 21
16.133980000000001
 72
       1
 10
50.75
 20
16.133980000000001
 11
50.75
 21
17.866029999999999
 72
       1
 10
50.75
 20
17.866029999999999
 11
49.25
 21
18.732050000000001
 72
       1
 10
49.25
 20
18.732050000000001
 11
47.75
 21
17.866029999999999
 72
       1
 10
47.75
 20
17.866029999999999
 11
47.75
 21
16.133980000000001
 97
        0
 75
       0
 76
       2
 98
        1
 10
0.0
 20
0.0
  0
POLYLINE
  5
567
100
AcDbEntity
  8
Solder_Pad_1_Top
100
AcDb2dPolyline
 66
       1
 10
0.0
 20
0.0
 30
0.0
 70
       1
  0
VERTEX
  5
568
100
AcDbEntity
  8
Solder_Pad_1_Top
100
AcDbVertex
100
AcDb2dVertex
 10
47.75
 20
17.86603
  0
VERTEX
  5
569
100
AcDbEntity
  8
Solder_Pad_1_Top
100
AcDbVertex
100
AcDb2dVertex
 10
47.75
 20
17.86603
  0
VERTEX
  5
56A
100
AcDbEntity
  8
Solder_Pad_1_Top
100
AcDbVertex
100
AcDb2dVertex
 10
49.25
 20
18.73205
  0
VERTEX
  5
56B
100
AcDbEntity
  8
Solder_Pad_1_Top
100
AcDbVertex
100
AcDb2dVertex
 10
50.75
 20
17.86603
  0
VERTEX
  5
56C
100
AcDbEntity
  8
Solder_Pad_1_Top
100
AcDbVertex
100
AcDb2dVertex
 10
50.75
 20
16.13398
  0
VERTEX
  5
56D
100
AcDbEntity
  8
Solder_Pad_1_Top
100
AcDbVertex
100
AcDb2dVertex
 10
49.25
 20
15.26795
  0
VERTEX
  5
56E
100
AcDbEntity
  8
Solder_Pad_1_Top
100
AcDbVertex
100
AcDb2dVertex
 10
47.75
 20
16.13398
  0
VERTEX
  5
56F
100
AcDbEntity
  8
Solder_Pad_1_Top
100
AcDbVertex
100
AcDb2dVertex
 10
47.75
 20
17.86603
  0
SEQEND
  5
570
100
AcDbEntity
  8
Solder_Pad_1_Top
  0
HATCH
  5
571
100
AcDbEntity
  8
Solder_Pad_1_Top
100
AcDbHatch
 10
0.0
 20
0.0
 30
0.0
210
0.0
220
0.0
230
1.0
  2
SOLID
 70
       1
 71
       1
 91
        1
 92
        1
 93
        6
 72
       1
 10
46.0
 20
1.13398
 11
47.5
 21
0.26795
 72
       1
 10
47.5
 20
0.26795
 11
49.0
 21
1.13398
 72
       1
 10
49.0
 20
1.13398
 11
49.0
 21
2.8660299999999999
 72
       1
 10
49.0
 20
2.8660299999999999
 11
47.5
 21
3.7320500000000001
 72
       1
 10
47.5
 20
3.7320500000000001
 11
46.0
 21
2.8660299999999999
 72
       1
 10
46.0
 20
2.8660299999999999
 11
46.0
 21
1.13398
 97
        0
 75
       0
 76
       2
 98
        1
 10
0.0
 20
0.0
  0
POLYLINE
  5
572
100
AcDbEntity
  8
Solder_Pad_1_Top
100
AcDb2dPolyline
 66
       1
 10
0.0
 20
0.0
 30
0.0
 70
       1
  0
VERTEX
  5
573
100
AcDbEntity
  8
Solder_Pad_1_Top
100
AcDbVertex
100
AcDb2dVertex
 10
46.0
 20
2.86603
  0
VERTEX
  5
574
100
AcDbEntity
  8
Solder_Pad_1_Top
100
AcDbVertex
100
AcDb2dVertex
 10
46.0
 20
2.86603
  0
VERTEX
  5
575
100
AcDbEntity
  8
Solder_Pad_1_Top
100
AcDbVertex
100
AcDb2dVertex
 10
47.5
 20
3.73205
  0
VERTEX
  5
576
100
AcDbEntity
  8
Solder_Pad_1_Top
100
AcDbVertex
100
AcDb2dVertex
 10
49.0
 20
2.86603
  0
VERTEX
  5
577
100
AcDbEntity
  8
Solder_Pad_1_Top
100
AcDbVertex
100
AcDb2dVertex
 10
49.0
 20
1.13398
  0
VERTEX
  5
578
100
AcDbEntity
  8
Solder_Pad_1_Top
100
AcDbVertex
100
AcDb2dVertex
 10
47.5
 20
0.26795
  0
VERTEX
  5
579
100
AcDbEntity
  8
Solder_Pad_1_Top
100
AcDbVertex
100
AcDb2dVertex
 10
46.0
 20
1.13398
  0
VERTEX
  5
57A
100
AcDbEntity
  8
Solder_Pad_1_Top
100
AcDbVertex
100
AcDb2dVertex
 10
46.0
 20
2.86603
  0
SEQEND
  5
57B
100
AcDbEntity
  8
Solder_Pad_1_Top
  0
HATCH
  5
57C
100
AcDbEntity
  8
Solder_Pad_1_Top
100
AcDbHatch
 10
0.0
 20
0.0
 30
0.0
210
0.0
220
0.0
230
1.0
  2
SOLID
 70
       1
 71
       1
 91
        1
 92
        1
 93
        6
 72
       1
 10
23.25
 20
16.08398
 11
24.75
 21
15.21795
 72
       1
 10
24.75
 20
15.21795
 11
26.25
 21
16.08398
 72
       1
 10
26.25
 20
16.08398
 11
26.25
 21
17.816030000000001
 72
       1
 10
26.25
 20
17.816030000000001
 11
24.75
 21
18.68205
 72
       1
 10
24.75
 20
18.68205
 11
23.25
 21
17.816030000000001
 72
       1
 10
23.25
 20
17.816030000000001
 11
23.25
 21
16.08398
 97
        0
 75
       0
 76
       2
 98
        1
 10
0.0
 20
0.0
  0
POLYLINE
  5
57D
100
AcDbEntity
  8
Solder_Pad_1_Top
100
AcDb2dPolyline
 66
       1
 10
0.0
 20
0.0
 30
0.0
 70
       1
  0
VERTEX
  5
57E
100
AcDbEntity
  8
Solder_Pad_1_Top
100
AcDbVertex
100
AcDb2dVertex
 10
23.25
 20
17.81603
  0
VERTEX
  5
57F
100
AcDbEntity
  8
Solder_Pad_1_Top
100
AcDbVertex
100
AcDb2dVertex
 10
23.25
 20
17.81603
  0
VERTEX
  5
580
100
AcDbEntity
  8
Solder_Pad_1_Top
100
AcDbVertex
100
AcDb2dVertex
 10
24.75
 20
18.68205
  0
VERTEX
  5
581
100
AcDbEntity
  8
Solder_Pad_1_Top
100
AcDbVertex
100
AcDb2dVertex
 10
26.25
 20
17.81603
  0
VERTEX
  5
582
100
AcDbEntity
  8
Solder_Pad_1_Top
100
AcDbVertex
100
AcDb2dVertex
 10
26.25
 20
16.08398
  0
VERTEX
  5
583
100
AcDbEntity
  8
Solder_Pad_1_Top
100
AcDbVertex
100
AcDb2dVertex
 10
24.75
 20
15.21795
  0
VERTEX
  5
584
100
AcDbEntity
  8
Solder_Pad_1_Top
100
AcDbVertex
100
AcDb2dVertex
 10
23.25
 20
16.08398
  0
VERTEX
  5
585
100
AcDbEntity
  8
Solder_Pad_1_Top
100
AcDbVertex
100
AcDb2dVertex
 10
23.25
 20
17.81603
  0
SEQEND
  5
586
100
AcDbEntity
  8
Solder_Pad_1_Top
  0
HATCH
  5
587
100
AcDbEntity
  8
Solder_Pad_1_Top
100
AcDbHatch
 10
0.0
 20
0.0
 30
0.0
210
0.0
220
0.0
230
1.0
  2
SOLID
 70
       1
 71
       1
 91
        1
 92
        1
 93
        6
 72
       1
 10
4.0
 20
1.13398
 11
5.5
 21
0.26795
 72
       1
 10
5.5
 20
0.26795
 11
7.0
 21
1.13398
 72
       1
 10
7.0
 20
1.13398
 11
7.0
 21
2.8660299999999999
 72
       1
 10
7.0
 20
2.8660299999999999
 11
5.5
 21
3.7320500000000001
 72
       1
 10
5.5
 20
3.7320500000000001
 11
4.0
 21
2.8660299999999999
 72
       1
 10
4.0
 20
2.8660299999999999
 11
4.0
 21
1.13398
 97
        0
 75
       0
 76
       2
 98
        1
 10
0.0
 20
0.0
  0
POLYLINE
  5
588
100
AcDbEntity
  8
Solder_Pad_1_Top
100
AcDb2dPolyline
 66
       1
 10
0.0
 20
0.0
 30
0.0
 70
       1
  0
VERTEX
  5
589
100
AcDbEntity
  8
Solder_Pad_1_Top
100
AcDbVertex
100
AcDb2dVertex
 10
4.0
 20
2.86603
  0
VERTEX
  5
58A
100
AcDbEntity
  8
Solder_Pad_1_Top
100
AcDbVertex
100
AcDb2dVertex
 10
4.0
 20
2.86603
  0
VERTEX
  5
58B
100
AcDbEntity
  8
Solder_Pad_1_Top
100
AcDbVertex
100
AcDb2dVertex
 10
5.5
 20
3.73205
  0
VERTEX
  5
58C
100
AcDbEntity
  8
Solder_Pad_1_Top
100
AcDbVertex
100
AcDb2dVertex
 10
7.0
 20
2.86603
  0
VERTEX
  5
58D
100
AcDbEntity
  8
Solder_Pad_1_Top
100
AcDbVertex
100
AcDb2dVertex
 10
7.0
 20
1.13398
  0
VERTEX
  5
58E
100
AcDbEntity
  8
Solder_Pad_1_Top
100
AcDbVertex
100
AcDb2dVertex
 10
5.5
 20
0.26795
  0
VERTEX
  5
58F
100
AcDbEntity
  8
Solder_Pad_1_Top
100
AcDbVertex
100
AcDb2dVertex
 10
4.0
 20
1.13398
  0
VERTEX
  5
590
100
AcDbEntity
  8
Solder_Pad_1_Top
100
AcDbVertex
100
AcDb2dVertex
 10
4.0
 20
2.86603
  0
SEQEND
  5
591
100
AcDbEntity
  8
Solder_Pad_1_Top
  0
HATCH
  5
592
100
AcDbEntity
  8
Solder_Pad_1_Top
100
AcDbHatch
 10
0.0
 20
0.0
 30
0.0
210
0.0
220
0.0
230
1.0
  2
SOLID
 70
       1
 71
       1
 91
        1
 92
        1
 93
        6
 72
       1
 10
49.5
 20
1.13398
 11
51.0
 21
0.26795
 72
       1
 10
51.0
 20
0.26795
 11
52.5
 21
1.13398
 72
       1
 10
52.5
 20
1.13398
 11
52.5
 21
2.8660299999999999
 72
       1
 10
52.5
 20
2.8660299999999999
 11
51.0
 21
3.7320500000000001
 72
       1
 10
51.0
 20
3.7320500000000001
 11
49.5
 21
2.8660299999999999
 72
       1
 10
49.5
 20
2.8660299999999999
 11
49.5
 21
1.13398
 97
        0
 75
       0
 76
       2
 98
        1
 10
0.0
 20
0.0
  0
POLYLINE
  5
593
100
AcDbEntity
  8
Solder_Pad_1_Top
100
AcDb2dPolyline
 66
       1
 10
0.0
 20
0.0
 30
0.0
 70
       1
  0
VERTEX
  5
594
100
AcDbEntity
  8
Solder_Pad_1_Top
100
AcDbVertex
100
AcDb2dVertex
 10
49.5
 20
2.86603
  0
VERTEX
  5
595
100
AcDbEntity
  8
Solder_Pad_1_Top
100
AcDbVertex
100
AcDb2dVertex
 10
49.5
 20
2.86603
  0
VERTEX
  5
596
100
AcDbEntity
  8
Solder_Pad_1_Top
100
AcDbVertex
100
AcDb2dVertex
 10
51.0
 20
3.73205
  0
VERTEX
  5
597
100
AcDbEntity
  8
Solder_Pad_1_Top
100
AcDbVertex
100
AcDb2dVertex
 10
52.5
 20
2.86603
  0
VERTEX
  5
598
100
AcDbEntity
  8
Solder_Pad_1_Top
100
AcDbVertex
100
AcDb2dVertex
 10
52.5
 20
1.13398
  0
VERTEX
  5
599
100
AcDbEntity
  8
Solder_Pad_1_Top
100
AcDbVertex
100
AcDb2dVertex
 10
51.0
 20
0.26795
  0
VERTEX
  5
59A
100
AcDbEntity
  8
Solder_Pad_1_Top
100
AcDbVertex
100
AcDb2dVertex
 10
49.5
 20
1.13398
  0
VERTEX
  5
59B
100
AcDbEntity
  8
Solder_Pad_1_Top
100
AcDbVertex
100
AcDb2dVertex
 10
49.5
 20
2.86603
  0
SEQEND
  5
59C
100
AcDbEntity
  8
Solder_Pad_1_Top
  0
HATCH
  5
59D
100
AcDbEntity
  8
Solder_Pad_1_Top
100
AcDbHatch
 10
0.0
 20
0.0
 30
0.0
210
0.0
220
0.0
230
1.0
  2
SOLID
 70
       1
 71
       1
 91
        1
 92
        1
 93
        6
 72
       1
 10
53.0
 20
1.13398
 11
54.5
 21
0.26795
 72
       1
 10
54.5
 20
0.26795
 11
56.0
 21
1.13398
 72
       1
 10
56.0
 20
1.13398
 11
56.0
 21
2.8660299999999999
 72
       1
 10
56.0
 20
2.8660299999999999
 11
54.5
 21
3.7320500000000001
 72
       1
 10
54.5
 20
3.7320500000000001
 11
53.0
 21
2.8660299999999999
 72
       1
 10
53.0
 20
2.8660299999999999
 11
53.0
 21
1.13398
 97
        0
 75
       0
 76
       2
 98
        1
 10
0.0
 20
0.0
  0
POLYLINE
  5
59E
100
AcDbEntity
  8
Solder_Pad_1_Top
100
AcDb2dPolyline
 66
       1
 10
0.0
 20
0.0
 30
0.0
 70
       1
  0
VERTEX
  5
59F
100
AcDbEntity
  8
Solder_Pad_1_Top
100
AcDbVertex
100
AcDb2dVertex
 10
53.0
 20
2.86603
  0
VERTEX
  5
5A0
100
AcDbEntity
  8
Solder_Pad_1_Top
100
AcDbVertex
100
AcDb2dVertex
 10
53.0
 20
2.86603
  0
VERTEX
  5
5A1
100
AcDbEntity
  8
Solder_Pad_1_Top
100
AcDbVertex
100
AcDb2dVertex
 10
54.5
 20
3.73205
  0
VERTEX
  5
5A2
100
AcDbEntity
  8
Solder_Pad_1_Top
100
AcDbVertex
100
AcDb2dVertex
 10
56.0
 20
2.86603
  0
VERTEX
  5
5A3
100
AcDbEntity
  8
Solder_Pad_1_Top
100
AcDbVertex
100
AcDb2dVertex
 10
56.0
 20
1.13398
  0
VERTEX
  5
5A4
100
AcDbEntity
  8
Solder_Pad_1_Top
100
AcDbVertex
100
AcDb2dVertex
 10
54.5
 20
0.26795
  0
VERTEX
  5
5A5
100
AcDbEntity
  8
Solder_Pad_1_Top
100
AcDbVertex
100
AcDb2dVertex
 10
53.0
 20
1.13398
  0
VERTEX
  5
5A6
100
AcDbEntity
  8
Solder_Pad_1_Top
100
AcDbVertex
100
AcDb2dVertex
 10
53.0
 20
2.86603
  0
SEQEND
  5
5A7
100
AcDbEntity
  8
Solder_Pad_1_Top
  0
HATCH
  5
5A8
100
AcDbEntity
  8
Solder_Pad_1_Top
100
AcDbHatch
 10
0.0
 20
0.0
 30
0.0
210
0.0
220
0.0
230
1.0
  2
SOLID
 70
       1
 71
       1
 91
        1
 92
        1
 93
        6
 72
       1
 10
51.25
 20
4.1339800000000002
 11
52.75
 21
3.2679499999999999
 72
       1
 10
52.75
 20
3.2679499999999999
 11
54.25
 21
4.1339800000000002
 72
       1
 10
54.25
 20
4.1339800000000002
 11
54.25
 21
5.8660300000000003
 72
       1
 10
54.25
 20
5.8660300000000003
 11
52.75
 21
6.7320500000000001
 72
       1
 10
52.75
 20
6.7320500000000001
 11
51.25
 21
5.8660300000000003
 72
       1
 10
51.25
 20
5.8660300000000003
 11
51.25
 21
4.1339800000000002
 97
        0
 75
       0
 76
       2
 98
        1
 10
0.0
 20
0.0
  0
POLYLINE
  5
5A9
100
AcDbEntity
  8
Solder_Pad_1_Top
100
AcDb2dPolyline
 66
       1
 10
0.0
 20
0.0
 30
0.0
 70
       1
  0
VERTEX
  5
5AA
100
AcDbEntity
  8
Solder_Pad_1_Top
100
AcDbVertex
100
AcDb2dVertex
 10
51.25
 20
5.86603
  0
VERTEX
  5
5AB
100
AcDbEntity
  8
Solder_Pad_1_Top
100
AcDbVertex
100
AcDb2dVertex
 10
51.25
 20
5.86603
  0
VERTEX
  5
5AC
100
AcDbEntity
  8
Solder_Pad_1_Top
100
AcDbVertex
100
AcDb2dVertex
 10
52.75
 20
6.73205
  0
VERTEX
  5
5AD
100
AcDbEntity
  8
Solder_Pad_1_Top
100
AcDbVertex
100
AcDb2dVertex
 10
54.25
 20
5.86603
  0
VERTEX
  5
5AE
100
AcDbEntity
  8
Solder_Pad_1_Top
100
AcDbVertex
100
AcDb2dVertex
 10
54.25
 20
4.13398
  0
VERTEX
  5
5AF
100
AcDbEntity
  8
Solder_Pad_1_Top
100
AcDbVertex
100
AcDb2dVertex
 10
52.75
 20
3.26795
  0
VERTEX
  5
5B0
100
AcDbEntity
  8
Solder_Pad_1_Top
100
AcDbVertex
100
AcDb2dVertex
 10
51.25
 20
4.13398
  0
VERTEX
  5
5B1
100
AcDbEntity
  8
Solder_Pad_1_Top
100
AcDbVertex
100
AcDb2dVertex
 10
51.25
 20
5.86603
  0
SEQEND
  5
5B2
100
AcDbEntity
  8
Solder_Pad_1_Top
  0
HATCH
  5
5B3
100
AcDbEntity
  8
Solder_Pad_1_Top
100
AcDbHatch
 10
0.0
 20
0.0
 30
0.0
210
0.0
220
0.0
230
1.0
  2
SOLID
 70
       1
 71
       1
 91
        1
 92
        1
 93
        6
 72
       1
 10
51.25
 20
10.133979999999999
 11
52.75
 21
9.2679500000000008
 72
       1
 10
52.75
 20
9.2679500000000008
 11
54.25
 21
10.133979999999999
 72
       1
 10
54.25
 20
10.133979999999999
 11
54.25
 21
11.86603
 72
       1
 10
54.25
 20
11.86603
 11
52.75
 21
12.732049999999999
 72
       1
 10
52.75
 20
12.732049999999999
 11
51.25
 21
11.86603
 72
       1
 10
51.25
 20
11.86603
 11
51.25
 21
10.133979999999999
 97
        0
 75
       0
 76
       2
 98
        1
 10
0.0
 20
0.0
  0
POLYLINE
  5
5B4
100
AcDbEntity
  8
Solder_Pad_1_Top
100
AcDb2dPolyline
 66
       1
 10
0.0
 20
0.0
 30
0.0
 70
       1
  0
VERTEX
  5
5B5
100
AcDbEntity
  8
Solder_Pad_1_Top
100
AcDbVertex
100
AcDb2dVertex
 10
51.25
 20
11.86603
  0
VERTEX
  5
5B6
100
AcDbEntity
  8
Solder_Pad_1_Top
100
AcDbVertex
100
AcDb2dVertex
 10
51.25
 20
11.86603
  0
VERTEX
  5
5B7
100
AcDbEntity
  8
Solder_Pad_1_Top
100
AcDbVertex
100
AcDb2dVertex
 10
52.75
 20
12.73205
  0
VERTEX
  5
5B8
100
AcDbEntity
  8
Solder_Pad_1_Top
100
AcDbVertex
100
AcDb2dVertex
 10
54.25
 20
11.86603
  0
VERTEX
  5
5B9
100
AcDbEntity
  8
Solder_Pad_1_Top
100
AcDbVertex
100
AcDb2dVertex
 10
54.25
 20
10.13398
  0
VERTEX
  5
5BA
100
AcDbEntity
  8
Solder_Pad_1_Top
100
AcDbVertex
100
AcDb2dVertex
 10
52.75
 20
9.26795
  0
VERTEX
  5
5BB
100
AcDbEntity
  8
Solder_Pad_1_Top
100
AcDbVertex
100
AcDb2dVertex
 10
51.25
 20
10.13398
  0
VERTEX
  5
5BC
100
AcDbEntity
  8
Solder_Pad_1_Top
100
AcDbVertex
100
AcDb2dVertex
 10
51.25
 20
11.86603
  0
SEQEND
  5
5BD
100
AcDbEntity
  8
Solder_Pad_1_Top
  0
HATCH
  5
5BE
100
AcDbEntity
  8
Solder_Pad_1_Top
100
AcDbHatch
 10
0.0
 20
0.0
 30
0.0
210
0.0
220
0.0
230
1.0
  2
SOLID
 70
       1
 71
       1
 91
        1
 92
        1
 93
        6
 72
       1
 10
51.25
 20
16.133980000000001
 11
52.75
 21
15.267950000000001
 72
       1
 10
52.75
 20
15.267950000000001
 11
54.25
 21
16.133980000000001
 72
       1
 10
54.25
 20
16.133980000000001
 11
54.25
 21
17.866029999999999
 72
       1
 10
54.25
 20
17.866029999999999
 11
52.75
 21
18.732050000000001
 72
       1
 10
52.75
 20
18.732050000000001
 11
51.25
 21
17.866029999999999
 72
       1
 10
51.25
 20
17.866029999999999
 11
51.25
 21
16.133980000000001
 97
        0
 75
       0
 76
       2
 98
        1
 10
0.0
 20
0.0
  0
POLYLINE
  5
5BF
100
AcDbEntity
  8
Solder_Pad_1_Top
100
AcDb2dPolyline
 66
       1
 10
0.0
 20
0.0
 30
0.0
 70
       1
  0
VERTEX
  5
5C0
100
AcDbEntity
  8
Solder_Pad_1_Top
100
AcDbVertex
100
AcDb2dVertex
 10
51.25
 20
17.86603
  0
VERTEX
  5
5C1
100
AcDbEntity
  8
Solder_Pad_1_Top
100
AcDbVertex
100
AcDb2dVertex
 10
51.25
 20
17.86603
  0
VERTEX
  5
5C2
100
AcDbEntity
  8
Solder_Pad_1_Top
100
AcDbVertex
100
AcDb2dVertex
 10
52.75
 20
18.73205
  0
VERTEX
  5
5C3
100
AcDbEntity
  8
Solder_Pad_1_Top
100
AcDbVertex
100
AcDb2dVertex
 10
54.25
 20
17.86603
  0
VERTEX
  5
5C4
100
AcDbEntity
  8
Solder_Pad_1_Top
100
AcDbVertex
100
AcDb2dVertex
 10
54.25
 20
16.13398
  0
VERTEX
  5
5C5
100
AcDbEntity
  8
Solder_Pad_1_Top
100
AcDbVertex
100
AcDb2dVertex
 10
52.75
 20
15.26795
  0
VERTEX
  5
5C6
100
AcDbEntity
  8
Solder_Pad_1_Top
100
AcDbVertex
100
AcDb2dVertex
 10
51.25
 20
16.13398
  0
VERTEX
  5
5C7
100
AcDbEntity
  8
Solder_Pad_1_Top
100
AcDbVertex
100
AcDb2dVertex
 10
51.25
 20
17.86603
  0
SEQEND
  5
5C8
100
AcDbEntity
  8
Solder_Pad_1_Top
  0
HATCH
  5
5C9
100
AcDbEntity
  8
Solder_Pad_1_Top
100
AcDbHatch
 10
0.0
 20
0.0
 30
0.0
210
0.0
220
0.0
230
1.0
  2
SOLID
 70
       1
 71
       1
 91
        1
 92
        1
 93
        6
 72
       1
 10
54.75
 20
16.133980000000001
 11
56.25
 21
15.267950000000001
 72
       1
 10
56.25
 20
15.267950000000001
 11
56.5
 21
15.41229
 72
       1
 10
56.5
 20
15.41229
 11
56.5
 21
18.587710000000001
 72
       1
 10
56.5
 20
18.587710000000001
 11
56.25
 21
18.732050000000001
 72
       1
 10
56.25
 20
18.732050000000001
 11
54.75
 21
17.866029999999999
 72
       1
 10
54.75
 20
17.866029999999999
 11
54.75
 21
16.133980000000001
 97
        0
 75
       0
 76
       2
 98
        1
 10
0.0
 20
0.0
  0
POLYLINE
  5
5CA
100
AcDbEntity
  8
Solder_Pad_1_Top
100
AcDb2dPolyline
 66
       1
 10
0.0
 20
0.0
 30
0.0
 70
       1
  0
VERTEX
  5
5CB
100
AcDbEntity
  8
Solder_Pad_1_Top
100
AcDbVertex
100
AcDb2dVertex
 10
56.5
 20
15.41229
  0
VERTEX
  5
5CC
100
AcDbEntity
  8
Solder_Pad_1_Top
100
AcDbVertex
100
AcDb2dVertex
 10
56.5
 20
15.41229
  0
VERTEX
  5
5CD
100
AcDbEntity
  8
Solder_Pad_1_Top
100
AcDbVertex
100
AcDb2dVertex
 10
56.25
 20
15.26795
  0
VERTEX
  5
5CE
100
AcDbEntity
  8
Solder_Pad_1_Top
100
AcDbVertex
100
AcDb2dVertex
 10
54.75
 20
16.13398
  0
VERTEX
  5
5CF
100
AcDbEntity
  8
Solder_Pad_1_Top
100
AcDbVertex
100
AcDb2dVertex
 10
54.75
 20
17.86603
  0
VERTEX
  5
5D0
100
AcDbEntity
  8
Solder_Pad_1_Top
100
AcDbVertex
100
AcDb2dVertex
 10
56.25
 20
18.73205
  0
VERTEX
  5
5D1
100
AcDbEntity
  8
Solder_Pad_1_Top
100
AcDbVertex
100
AcDb2dVertex
 10
56.5
 20
18.58771
  0
VERTEX
  5
5D2
100
AcDbEntity
  8
Solder_Pad_1_Top
100
AcDbVertex
100
AcDb2dVertex
 10
56.5
 20
15.41229
  0
SEQEND
  5
5D3
100
AcDbEntity
  8
Solder_Pad_1_Top
  0
HATCH
  5
5D4
100
AcDbEntity
  8
Solder_Pad_1_Top
100
AcDbHatch
 10
0.0
 20
0.0
 30
0.0
210
0.0
220
0.0
230
1.0
  2
SOLID
 70
       1
 71
       1
 91
        1
 92
        1
 93
        6
 72
       1
 10
4.0
 20
19.133980000000001
 11
5.5
 21
18.267949999999999
 72
       1
 10
5.5
 20
18.267949999999999
 11
7.0
 21
19.133980000000001
 72
       1
 10
7.0
 20
19.133980000000001
 11
7.0
 21
20.866029999999999
 72
       1
 10
7.0
 20
20.866029999999999
 11
5.5
 21
21.732050000000001
 72
       1
 10
5.5
 20
21.732050000000001
 11
4.0
 21
20.866029999999999
 72
       1
 10
4.0
 20
20.866029999999999
 11
4.0
 21
19.133980000000001
 97
        0
 75
       0
 76
       2
 98
        1
 10
0.0
 20
0.0
  0
POLYLINE
  5
5D5
100
AcDbEntity
  8
Solder_Pad_1_Top
100
AcDb2dPolyline
 66
       1
 10
0.0
 20
0.0
 30
0.0
 70
       1
  0
VERTEX
  5
5D6
100
AcDbEntity
  8
Solder_Pad_1_Top
100
AcDbVertex
100
AcDb2dVertex
 10
4.0
 20
20.86603
  0
VERTEX
  5
5D7
100
AcDbEntity
  8
Solder_Pad_1_Top
100
AcDbVertex
100
AcDb2dVertex
 10
4.0
 20
20.86603
  0
VERTEX
  5
5D8
100
AcDbEntity
  8
Solder_Pad_1_Top
100
AcDbVertex
100
AcDb2dVertex
 10
5.5
 20
21.73205
  0
VERTEX
  5
5D9
100
AcDbEntity
  8
Solder_Pad_1_Top
100
AcDbVertex
100
AcDb2dVertex
 10
7.0
 20
20.86603
  0
VERTEX
  5
5DA
100
AcDbEntity
  8
Solder_Pad_1_Top
100
AcDbVertex
100
AcDb2dVertex
 10
7.0
 20
19.13398
  0
VERTEX
  5
5DB
100
AcDbEntity
  8
Solder_Pad_1_Top
100
AcDbVertex
100
AcDb2dVertex
 10
5.5
 20
18.26795
  0
VERTEX
  5
5DC
100
AcDbEntity
  8
Solder_Pad_1_Top
100
AcDbVertex
100
AcDb2dVertex
 10
4.0
 20
19.13398
  0
VERTEX
  5
5DD
100
AcDbEntity
  8
Solder_Pad_1_Top
100
AcDbVertex
100
AcDb2dVertex
 10
4.0
 20
20.86603
  0
SEQEND
  5
5DE
100
AcDbEntity
  8
Solder_Pad_1_Top
  0
HATCH
  5
5DF
100
AcDbEntity
  8
Solder_Pad_1_Top
100
AcDbHatch
 10
0.0
 20
0.0
 30
0.0
210
0.0
220
0.0
230
1.0
  2
SOLID
 70
       1
 71
       1
 91
        1
 92
        1
 93
        6
 72
       1
 10
0.0
 20
15.41229
 11
0.25
 21
15.267950000000001
 72
       1
 10
0.25
 20
15.267950000000001
 11
1.75
 21
16.133980000000001
 72
       1
 10
1.75
 20
16.133980000000001
 11
1.75
 21
17.866029999999999
 72
       1
 10
1.75
 20
17.866029999999999
 11
0.25
 21
18.732050000000001
 72
       1
 10
0.25
 20
18.732050000000001
 11
0.0
 21
18.587710000000001
 72
       1
 10
0.0
 20
18.587710000000001
 11
0.0
 21
15.41229
 97
        0
 75
       0
 76
       2
 98
        1
 10
0.0
 20
0.0
  0
POLYLINE
  5
5E0
100
AcDbEntity
  8
Solder_Pad_1_Top
100
AcDb2dPolyline
 66
       1
 10
0.0
 20
0.0
 30
0.0
 70
       1
  0
VERTEX
  5
5E1
100
AcDbEntity
  8
Solder_Pad_1_Top
100
AcDbVertex
100
AcDb2dVertex
 10
0.0
 20
15.41229
  0
VERTEX
  5
5E2
100
AcDbEntity
  8
Solder_Pad_1_Top
100
AcDbVertex
100
AcDb2dVertex
 10
0.0
 20
15.41229
  0
VERTEX
  5
5E3
100
AcDbEntity
  8
Solder_Pad_1_Top
100
AcDbVertex
100
AcDb2dVertex
 10
0.25
 20
15.26795
  0
VERTEX
  5
5E4
100
AcDbEntity
  8
Solder_Pad_1_Top
100
AcDbVertex
100
AcDb2dVertex
 10
1.75
 20
16.13398
  0
VERTEX
  5
5E5
100
AcDbEntity
  8
Solder_Pad_1_Top
100
AcDbVertex
100
AcDb2dVertex
 10
1.75
 20
17.86603
  0
VERTEX
  5
5E6
100
AcDbEntity
  8
Solder_Pad_1_Top
100
AcDbVertex
100
AcDb2dVertex
 10
0.25
 20
18.73205
  0
VERTEX
  5
5E7
100
AcDbEntity
  8
Solder_Pad_1_Top
100
AcDbVertex
100
AcDb2dVertex
 10
0.0
 20
18.58771
  0
VERTEX
  5
5E8
100
AcDbEntity
  8
Solder_Pad_1_Top
100
AcDbVertex
100
AcDb2dVertex
 10
0.0
 20
15.41229
  0
SEQEND
  5
5E9
100
AcDbEntity
  8
Solder_Pad_1_Top
  0
HATCH
  5
5EA
100
AcDbEntity
  8
Solder_Pad_1_Top
100
AcDbHatch
 10
0.0
 20
0.0
 30
0.0
210
0.0
220
0.0
230
1.0
  2
SOLID
 70
       1
 71
       1
 91
        1
 92
        1
 93
        6
 72
       1
 10
0.5
 20
1.13398
 11
2.0
 21
0.26795
 72
       1
 10
2.0
 20
0.26795
 11
3.5
 21
1.13398
 72
       1
 10
3.5
 20
1.13398
 11
3.5
 21
2.8660299999999999
 72
       1
 10
3.5
 20
2.8660299999999999
 11
2.0
 21
3.7320500000000001
 72
       1
 10
2.0
 20
3.7320500000000001
 11
0.5
 21
2.8660299999999999
 72
       1
 10
0.5
 20
2.8660299999999999
 11
0.5
 21
1.13398
 97
        0
 75
       0
 76
       2
 98
        1
 10
0.0
 20
0.0
  0
POLYLINE
  5
5EB
100
AcDbEntity
  8
Solder_Pad_1_Top
100
AcDb2dPolyline
 66
       1
 10
0.0
 20
0.0
 30
0.0
 70
       1
  0
VERTEX
  5
5EC
100
AcDbEntity
  8
Solder_Pad_1_Top
100
AcDbVertex
100
AcDb2dVertex
 10
0.5
 20
2.86603
  0
VERTEX
  5
5ED
100
AcDbEntity
  8
Solder_Pad_1_Top
100
AcDbVertex
100
AcDb2dVertex
 10
0.5
 20
2.86603
  0
VERTEX
  5
5EE
100
AcDbEntity
  8
Solder_Pad_1_Top
100
AcDbVertex
100
AcDb2dVertex
 10
2.0
 20
3.73205
  0
VERTEX
  5
5EF
100
AcDbEntity
  8
Solder_Pad_1_Top
100
AcDbVertex
100
AcDb2dVertex
 10
3.5
 20
2.86603
  0
VERTEX
  5
5F0
100
AcDbEntity
  8
Solder_Pad_1_Top
100
AcDbVertex
100
AcDb2dVertex
 10
3.5
 20
1.13398
  0
VERTEX
  5
5F1
100
AcDbEntity
  8
Solder_Pad_1_Top
100
AcDbVertex
100
AcDb2dVertex
 10
2.0
 20
0.26795
  0
VERTEX
  5
5F2
100
AcDbEntity
  8
Solder_Pad_1_Top
100
AcDbVertex
100
AcDb2dVertex
 10
0.5
 20
1.13398
  0
VERTEX
  5
5F3
100
AcDbEntity
  8
Solder_Pad_1_Top
100
AcDbVertex
100
AcDb2dVertex
 10
0.5
 20
2.86603
  0
SEQEND
  5
5F4
100
AcDbEntity
  8
Solder_Pad_1_Top
  0
HATCH
  5
5F5
100
AcDbEntity
  8
Solder_Pad_1_Top
100
AcDbHatch
 10
0.0
 20
0.0
 30
0.0
210
0.0
220
0.0
230
1.0
  2
SOLID
 70
       1
 71
       1
 91
        1
 92
        1
 93
        6
 72
       1
 10
2.25
 20
16.133980000000001
 11
3.75
 21
15.267950000000001
 72
       1
 10
3.75
 20
15.267950000000001
 11
5.25
 21
16.133980000000001
 72
       1
 10
5.25
 20
16.133980000000001
 11
5.25
 21
17.866029999999999
 72
       1
 10
5.25
 20
17.866029999999999
 11
3.75
 21
18.732050000000001
 72
       1
 10
3.75
 20
18.732050000000001
 11
2.25
 21
17.866029999999999
 72
       1
 10
2.25
 20
17.866029999999999
 11
2.25
 21
16.133980000000001
 97
        0
 75
       0
 76
       2
 98
        1
 10
0.0
 20
0.0
  0
POLYLINE
  5
5F6
100
AcDbEntity
  8
Solder_Pad_1_Top
100
AcDb2dPolyline
 66
       1
 10
0.0
 20
0.0
 30
0.0
 70
       1
  0
VERTEX
  5
5F7
100
AcDbEntity
  8
Solder_Pad_1_Top
100
AcDbVertex
100
AcDb2dVertex
 10
2.25
 20
17.86603
  0
VERTEX
  5
5F8
100
AcDbEntity
  8
Solder_Pad_1_Top
100
AcDbVertex
100
AcDb2dVertex
 10
2.25
 20
17.86603
  0
VERTEX
  5
5F9
100
AcDbEntity
  8
Solder_Pad_1_Top
100
AcDbVertex
100
AcDb2dVertex
 10
3.75
 20
18.73205
  0
VERTEX
  5
5FA
100
AcDbEntity
  8
Solder_Pad_1_Top
100
AcDbVertex
100
AcDb2dVertex
 10
5.25
 20
17.86603
  0
VERTEX
  5
5FB
100
AcDbEntity
  8
Solder_Pad_1_Top
100
AcDbVertex
100
AcDb2dVertex
 10
5.25
 20
16.13398
  0
VERTEX
  5
5FC
100
AcDbEntity
  8
Solder_Pad_1_Top
100
AcDbVertex
100
AcDb2dVertex
 10
3.75
 20
15.26795
  0
VERTEX
  5
5FD
100
AcDbEntity
  8
Solder_Pad_1_Top
100
AcDbVertex
100
AcDb2dVertex
 10
2.25
 20
16.13398
  0
VERTEX
  5
5FE
100
AcDbEntity
  8
Solder_Pad_1_Top
100
AcDbVertex
100
AcDb2dVertex
 10
2.25
 20
17.86603
  0
SEQEND
  5
5FF
100
AcDbEntity
  8
Solder_Pad_1_Top
  0
HATCH
  5
600
100
AcDbEntity
  8
Solder_Pad_1_Top
100
AcDbHatch
 10
0.0
 20
0.0
 30
0.0
210
0.0
220
0.0
230
1.0
  2
SOLID
 70
       1
 71
       1
 91
        1
 92
        1
 93
        6
 72
       1
 10
21.5
 20
19.08398
 11
23.0
 21
18.217949999999998
 72
       1
 10
23.0
 20
18.217949999999998
 11
24.5
 21
19.08398
 72
       1
 10
24.5
 20
19.08398
 11
24.5
 21
20.816030000000001
 72
       1
 10
24.5
 20
20.816030000000001
 11
23.0
 21
21.68205
 72
       1
 10
23.0
 20
21.68205
 11
21.5
 21
20.816030000000001
 72
       1
 10
21.5
 20
20.816030000000001
 11
21.5
 21
19.08398
 97
        0
 75
       0
 76
       2
 98
        1
 10
0.0
 20
0.0
  0
POLYLINE
  5
601
100
AcDbEntity
  8
Solder_Pad_1_Top
100
AcDb2dPolyline
 66
       1
 10
0.0
 20
0.0
 30
0.0
 70
       1
  0
VERTEX
  5
602
100
AcDbEntity
  8
Solder_Pad_1_Top
100
AcDbVertex
100
AcDb2dVertex
 10
21.5
 20
20.81603
  0
VERTEX
  5
603
100
AcDbEntity
  8
Solder_Pad_1_Top
100
AcDbVertex
100
AcDb2dVertex
 10
21.5
 20
20.81603
  0
VERTEX
  5
604
100
AcDbEntity
  8
Solder_Pad_1_Top
100
AcDbVertex
100
AcDb2dVertex
 10
23.0
 20
21.68205
  0
VERTEX
  5
605
100
AcDbEntity
  8
Solder_Pad_1_Top
100
AcDbVertex
100
AcDb2dVertex
 10
24.5
 20
20.81603
  0
VERTEX
  5
606
100
AcDbEntity
  8
Solder_Pad_1_Top
100
AcDbVertex
100
AcDb2dVertex
 10
24.5
 20
19.08398
  0
VERTEX
  5
607
100
AcDbEntity
  8
Solder_Pad_1_Top
100
AcDbVertex
100
AcDb2dVertex
 10
23.0
 20
18.21795
  0
VERTEX
  5
608
100
AcDbEntity
  8
Solder_Pad_1_Top
100
AcDbVertex
100
AcDb2dVertex
 10
21.5
 20
19.08398
  0
VERTEX
  5
609
100
AcDbEntity
  8
Solder_Pad_1_Top
100
AcDbVertex
100
AcDb2dVertex
 10
21.5
 20
20.81603
  0
SEQEND
  5
60A
100
AcDbEntity
  8
Solder_Pad_1_Top
  0
HATCH
  5
60B
100
AcDbEntity
  8
Solder_Pad_1_Top
100
AcDbHatch
 10
0.0
 20
0.0
 30
0.0
210
0.0
220
0.0
230
1.0
  2
SOLID
 70
       1
 71
       1
 91
        1
 92
        1
 93
        6
 72
       1
 10
11.0
 20
1.13398
 11
12.5
 21
0.26795
 72
       1
 10
12.5
 20
0.26795
 11
14.0
 21
1.13398
 72
       1
 10
14.0
 20
1.13398
 11
14.0
 21
2.8660299999999999
 72
       1
 10
14.0
 20
2.8660299999999999
 11
12.5
 21
3.7320500000000001
 72
       1
 10
12.5
 20
3.7320500000000001
 11
11.0
 21
2.8660299999999999
 72
       1
 10
11.0
 20
2.8660299999999999
 11
11.0
 21
1.13398
 97
        0
 75
       0
 76
       2
 98
        1
 10
0.0
 20
0.0
  0
POLYLINE
  5
60C
100
AcDbEntity
  8
Solder_Pad_1_Top
100
AcDb2dPolyline
 66
       1
 10
0.0
 20
0.0
 30
0.0
 70
       1
  0
VERTEX
  5
60D
100
AcDbEntity
  8
Solder_Pad_1_Top
100
AcDbVertex
100
AcDb2dVertex
 10
11.0
 20
2.86603
  0
VERTEX
  5
60E
100
AcDbEntity
  8
Solder_Pad_1_Top
100
AcDbVertex
100
AcDb2dVertex
 10
11.0
 20
2.86603
  0
VERTEX
  5
60F
100
AcDbEntity
  8
Solder_Pad_1_Top
100
AcDbVertex
100
AcDb2dVertex
 10
12.5
 20
3.73205
  0
VERTEX
  5
610
100
AcDbEntity
  8
Solder_Pad_1_Top
100
AcDbVertex
100
AcDb2dVertex
 10
14.0
 20
2.86603
  0
VERTEX
  5
611
100
AcDbEntity
  8
Solder_Pad_1_Top
100
AcDbVertex
100
AcDb2dVertex
 10
14.0
 20
1.13398
  0
VERTEX
  5
612
100
AcDbEntity
  8
Solder_Pad_1_Top
100
AcDbVertex
100
AcDb2dVertex
 10
12.5
 20
0.26795
  0
VERTEX
  5
613
100
AcDbEntity
  8
Solder_Pad_1_Top
100
AcDbVertex
100
AcDb2dVertex
 10
11.0
 20
1.13398
  0
VERTEX
  5
614
100
AcDbEntity
  8
Solder_Pad_1_Top
100
AcDbVertex
100
AcDb2dVertex
 10
11.0
 20
2.86603
  0
SEQEND
  5
615
100
AcDbEntity
  8
Solder_Pad_1_Top
  0
ENDSEC
  0
SECTION
  2
OBJECTS
  0
DICTIONARY
  5
19
100
AcDbDictionary
280
       0
281
       1
  3
ACAD_GROUP
350
1A
  3
ACAD_MLINESTYLE
350
1B
  3
ACAD_LAYOUT
350
1E
  3
ACAD_PLOTSETTINGS
350
22
  3
ACAD_PLOTSTYLENAME
350
1F
  3
ACAD_WIPEOUT_VARS
350
23
  0
DICTIONARY
  5
1A
102
{ACAD_REACTORS
330
19
102
}
100
AcDbDictionary
280
       0
281
       1
  0
DICTIONARY
  5
1B
102
{ACAD_REACTORS
330
19
102
}
100
AcDbDictionary
280
       0
281
       1
  3
Standard
350
1C
  0
MLINESTYLE
  5
1C
102
{ACAD_REACTORS
330
1B
102
}
100
AcDbMlineStyle
  2
Standard
 70
       0
  3

 62
       0
 51
90.0
 52
90.0
 71
       2
 49
0.5
 62
     256
  6
BYLAYER
 49
-0.5
 62
     256
  6
BYLAYER
  0
ACDBDICTIONARYWDFLT
  5
1F
102
{ACAD_REACTORS
330
19
102
}
100
AcDbDictionary
281
       1
  3
Normal
350
1D
100
AcDbDictionaryWithDefault
340
1D
  0
ACDBPLACEHOLDER
  5
1D
102
{ACAD_REACTORS
330
1F
102
}
  0
LAYOUT
  5
20
102
{ACAD_REACTORS
330
1E
102
}
100
AcDbPlotSettings
  1

  2

  4

  6

 40
0.0
 41
0.0
 42
0.0
 43
0.0
 44
0.0
 45
0.0
 46
0.0
 47
0.0
 48
0.0
 49
0.0
140
0.0
141
0.0
142
1.0
143
1.0
 70
    1024
 72
       0
 73
       0
 74
       0
  7

 75
       0
147
1.0
148
0.0
149
0.0
100
AcDbLayout
  1
Model
 70
       0
 71
       0
 10
0.0
 20
0.0
 11
0.0
 21
0.0
 12
0.0
 22
0.0
 32
0.0
 14
0.0
 24
0.0
 34
0.0
 15
0.0
 25
0.0
 35
0.0
146
0.0
 13
0.0
 23
0.0
 33
0.0
 16
0.0
 26
0.0
 36
0.0
 17
0.0
 27
0.0
 37
0.0
 76
       0
330
A
331
0
345
0
346
0
  0
LAYOUT
  5
21
102
{ACAD_REACTORS
330
1E
102
}
100
AcDbPlotSettings
  1

  2

  4

  6

 40
0.0
 41
0.0
 42
0.0
 43
0.0
 44
0.0
 45
0.0
 46
0.0
 47
0.0
 48
0.0
 49
0.0
140
0.0
141
0.0
142
1.0
143
1.0
 70
       0
 72
       0
 73
       0
 74
       0
  7

 75
       0
147
1.0
148
0.0
149
0.0
100
AcDbLayout
  1
Layout1
 70
       0
 71
       0
 10
0.0
 20
0.0
 11
0.0
 21
0.0
 12
0.0
 22
0.0
 32
0.0
 14
0.0
 24
0.0
 34
0.0
 15
0.0
 25
0.0
 35
0.0
146
0.0
 13
0.0
 23
0.0
 33
0.0
 16
0.0
 26
0.0
 36
0.0
 17
0.0
 27
0.0
 37
0.0
 76
       0
330
B
331
0
345
0
346
0
  0
DICTIONARY
  5
1E
102
{ACAD_REACTORS
330
19
102
}
100
AcDbDictionary
280
       0
281
       1
  3
Layout1
350
21
  3
Model
350
20
  0
DICTIONARY
  5
22
102
{ACAD_REACTORS
330
19
102
}
100
AcDbDictionary
280
       0
281
       1
  0
WIPEOUTVARIABLES
  5
23
100
AcDbWipeoutVariables
 70
       1
  0
ENDSEC
  0
EOF
